Lady Madonna

by The Beatles

Guitar Pro Tab  |  v4.00  |  Posted on March 29, 2007, 10:56 a.m. ← Back

Guitar Pro Tab Summary

Album

unknown

Song Author

unknown

Tabbed by

Bernd M´┐Żnzer (CholeraLight@hotmail.com)

Instruments

1st → piano treble
2nd → bass
3rd → piano bass
4th → VOX
5th → guitar
6th → Drums

File Size

30 KB

Views

7,317






Tablature Sheet

Title: Lady Madonna
Artist: The Beatles
Album: 
Author: 






Track 1: piano treble
Back to top
E|-------------|-5-----5-------5-----5-----5----------|-5-----5-----5-----5-----5---------------------|
B|-------------|---------------------0----------------|-------------------0---------------------------|
G|-------------|-6-----6-------5----------------------|-6-----6-----5---------------7--7-----7--7-----|
D|-------------|---------------------------7----7-----|-------------------------7---------7-----------|
A|-------------|--------------------------------------|-----------------------------------------------|
E|-------------|--------------------------------------|-----------------------------------------------|


E|-5-----5-----5-----5-----5----5-------|-5----5----5-----|-5-----5-------5-----5-----5----------|
B|-------------------0------------------|------0----5-----|---------------------0----------------|
G|-6-----6-----5-----------7------------|-5----7----6-----|-6-----6-------5----------------------|
D|-------------------------7----7-------|-7----5----7-----|---------------------------7----7-----|
A|--------------------------------------|-8---------------|--------------------------------------|
E|--------------------------------------|-----------------|--------------------------------------|


E|-5-----5-----5-----5-----5---------------------|-5-----5-----5-----5-----5-------5-------|
B|-------------------0---------------------------|-------------------0---------------------|
G|-6-----6-----5---------------7--7-----7--7-----|-6-----6-----5---------------------------|
D|-------------------------7---------7-----------|-------------------------7-------7-------|
A|-----------------------------------------------|-----------------------------------------|
E|-----------------------------------------------|-----------------------------------------|


E|-5----5----5-----|-5-----5-------5-----5-----5----------|-5-----5-----5-----5-----5---------------------|
B|------0----5-----|---------------------0----------------|-------------------0---------------------------|
G|-5----7----6-----|-6-----6-------5----------------------|-6-----6-----5---------------7--7-----7--7-----|
D|-7----5----7-----|---------------------------7----7-----|-------------------------7---------7-----------|
A|-8---------------|--------------------------------------|-----------------------------------------------|
E|-----------------|--------------------------------------|-----------------------------------------------|


E|-5-----5-----5-----5-----5-------5-------|-5----5----5-----|-5-------5-------5---------------|
B|-------------------0---------------------|------0----------|-6-------6-------6---0-----------|
G|-6-----6-----5---------------------------|-----------6-----|-7---7---7---5---7-------5---2---|
D|-------------------------7-------7-------|-7----5----7-----|-12------10------9---------------|
A|-----------------------------------------|-----------------|---------------------------------|
E|-----------------------------------------|-----------------|---------------------------------|


E|------------------------------|-0-------0-------0---------------|-0-------------------------------|
B|-0----------------------------|-8-------0---------------0-------|-1-------------------------------|
G|-7---0------------------------|-5-------12------12--------------|-5-------------------------------|
D|-12-----------------------0---|-10------10------10--------------|-7---------------------------2---|
A|-10-------8-------7-----------|-----------------12--0-----------|-----0-------2-------3-----------|
E|------------------------------|-----8-------7---------------3---|---------------------------------|


E|-5-------5-------5-------5-------|---------------------------|-0-----------|-5-----0-----|
B|-6-------6-------6---0---6-------|-0-------------------------|-8-----7-----|-5-----0-----|
G|-7---7---7---5---7-------7-------|-7---0---------------------|-------7-----|-5-----------|
D|-12------10------9-------10--7---|-12------------------------|-10----9-----|-------6-----|
A|---------------------------------|-10-------8-------7--------|-------------|-------------|
E|---------------------------------|---------------------------|-------------|-------------|


E|-5-----5-------5-----5-----5----------|-5-----5-----5-----5-----5---------------------|
B|---------------------0----------------|-------------------0---------------------------|
G|-6-----6-------5----------------------|-6-----6-----5---------------7--7-----7--7-----|
D|---------------------------7----7-----|-------------------------7---------7-----------|
A|--------------------------------------|-----------------------------------------------|
E|--------------------------------------|-----------------------------------------------|


E|-5-----5-----5-----5-----5-------5-------|-5-------5-------5-----|-5-----5-------5-----5-----5----------|
B|-------------------0---------------------|---------0-------------|---------------------0----------------|
G|-6-----6-----5---------------------------|-----------------6-----|-6-----6-------5----------------------|
D|-------------------------7-------7-------|-7---------------------|---------------------------7----7-----|
A|-----------------------------------------|-----------------------|--------------------------------------|
E|-----------------------------------------|-----------------------|--------------------------------------|


E|-5-----5-----5-----5-----5---------------------|-5-----5-----5-----5-----5-------5-------|
B|-------------------0---------------------------|-------------------0---------------------|
G|-6-----6-----5---------------7--7-----7--7-----|-6-----6-----5---------------------------|
D|-------------------------7---------7-----------|-------------------------7-------7-------|
A|-----------------------------------------------|-----------------------------------------|
E|-----------------------------------------------|-----------------------------------------|


E|-5-------5-------5-----|-5-------5-------5---------------|------------------------------|
B|---------0-------------|-6-------6-------6---0-----------|-0----------------------------|
G|-----------------6-----|-7---7---7---5---7-------5---2---|-7---0------------------------|
D|-7---------------------|-12------10------9---------------|-12-----------------------0---|
A|-----------------------|---------------------------------|-10-------8-------7-----------|
E|-----------------------|---------------------------------|------------------------------|


E|-0-------0-------0---------------|-0-------------------------------|-5-------5-------5-------5-------|
B|-8-------0---------------0-------|-1-------------------------------|-6-------6-------6---0---6-------|
G|-5-------12------12--------------|-5-------------------------------|-7---7---7---5---7-------7-------|
D|-10------10------10--------------|-7---------------------------2---|-12------10------9-------10--7---|
A|-----------------12--0-----------|-----0-------2-------3-----------|---------------------------------|
E|-----8-------7---------------3---|---------------------------------|---------------------------------|


E|---------------------------|-0-----------|-5-----0-----|-5-----5-------5-----5-----5----------|
B|-0-------------------------|-8-----7-----|-5-----0-----|---------------------0----------------|
G|-7---0---------------------|-------7-----|-5-----------|-6-----6-------5----------------------|
D|-12------------------------|-10----9-----|-7-----6-----|---------------------------7----7-----|
A|-10-------8-------7--------|-------------|-------------|--------------------------------------|
E|---------------------------|-------------|-------------|--------------------------------------|


E|-5-----5-----5-----5-----5---------------------|-5-----5-----5-----5-----5-------5-------|
B|-------------------0---------------------------|-------------------0---------------------|
G|-6-----6-----5---------------7--7-----7--7-----|-6-----6-----5---------------------------|
D|-------------------------7---------7-----------|-------------------------7-------7-------|
A|-----------------------------------------------|-----------------------------------------|
E|-----------------------------------------------|-----------------------------------------|


E|-5-------5-------5-----|-5-----5-------5-----5-----5----------|-5-----5-----5-----5-----5---------------------|
B|---------0-------------|---------------------0----------------|-------------------0---------------------------|
G|-----------------6-----|-6-----6-------5----------------------|-6-----6-----5---------------7--7-----7--7-----|
D|-7---------------------|---------------------------7----7-----|-------------------------7---------7-----------|
A|-----------------------|--------------------------------------|-----------------------------------------------|
E|-----------------------|--------------------------------------|-----------------------------------------------|


E|-5-----5-----5-----5-----5-------5-------|-5-------5-------5-----|-5-------5-------5---------------|
B|-------------------0---------------------|---------0-------------|-6-------6-------6---0-----------|
G|-6-----6-----5---------------------------|-----------------6-----|-7---7---7---5---7-------5---2---|
D|-------------------------7-------7-------|-7---------------------|-12------10------9---------------|
A|-----------------------------------------|-----------------------|---------------------------------|
E|-----------------------------------------|-----------------------|---------------------------------|


E|------------------------------|-0-------0-------0---------------|-0-------------------------------|
B|-0----------------------------|-8-------0---------------0-------|-1-------------------------------|
G|-7---0------------------------|-5-------12------12--------------|-5-------------------------------|
D|-12-----------------------0---|-10------10------10--------------|-7---------------------------2---|
A|-10-------8-------7-----------|-----------------12--0-----------|-----0-------2-------3-----------|
E|------------------------------|-----8-------7---------------3---|---------------------------------|


E|-5-------5-------5-------5-------|---------------------------|-0-----------|-------------|
B|-6-------6-------6---0---6-------|-0-------------------------|-------0-----|-------0-----|
G|-7---7---7---5---7-------7-------|-7---0---------------------|-5-----7-----|-5-----------|
D|-12------10------9-------10--7---|-12------------------------|-------------|-7-----6-----|
A|---------------------------------|-10-------8-------7--------|-------------|-------------|
E|---------------------------------|---------------------------|-------------|-------------|


E|-5-----5-------5-----5-----5----------|-5-----5-----5-----5-----5---------------------|
B|---------------------0----------------|-------------------0---------------------------|
G|-6-----6-------5----------------------|-6-----6-----5---------------7--7-----7--7-----|
D|---------------------------7----7-----|-------------------------7---------7-----------|
A|--------------------------------------|-----------------------------------------------|
E|--------------------------------------|-----------------------------------------------|


E|-5-----5-----5-----5-----5-------5-------|-5-------5-------5---------|------------------0-----0---------------|
B|-------------------0---------------------|---------0-------0---2-----|-0-----0----0--0--1--1--1-----0-----2---|
G|-6-----6-----5---------------------------|-----------------6---2-----|-7-----7----------------2-----7-----2---|
D|-------------------------7-------7-------|-7---------------7---7-----|-9-----9----------------------9-----7---|
A|-----------------------------------------|-----------------16--------|----------------------------------------|
E|-----------------------------------------|-----------------17--------|----------------------------------------|


E|----------------------------|------------------0-----0-----------5---|-5---------------|
B|-2---------2-----2----------|-0-----0----0--0--1-----1-----0-----5---|-5---------------|
G|-2---------2-----2----2--2--|-7-----7-------4--5-----2-----7-----6---|-6---------------|
D|-7---------7-----7----7-----|-9-----9----9-----------------9-----7---|-7---------------|
A|----------------------------|-12-------------------------------------|-----------------|
E|----------------------------|----------------------------------------|-----------------|


E|-------------|
B|-------------|
G|-------------|
D|-------------|
A|-------------|
E|-------------|









Track 2: piano bass
Back to top
G|-------------|-17--18------17----16--14-----14-14--|-17--18--17--16--14----------7---|
D|-------------|-------------------0---12--0-----12--|-----------------0---12--0-------|
A|-------------|-0-----------16----------------------|-0-----------16------------------|
E|-------------|-----17--9---------------------------|-----17--9-----------------------|


G|-17--18--17--16--14------14------|-14------16------18----|-17--18------17----16--14-----14-14--|
D|-----------------0---12------14--|-----15------17--------|-------------------0---12--0-----12--|
A|-0-----------16------------------|-----------------------|-0-----------16----------------------|
E|-----17--9---------------12------|-13------15------17----|-----17--9---------------------------|


G|-17--18--17--16--14----------7---|-17--18--17--16--14------14------|-14------16------18----|
D|-----------------0---12--0-------|-----------------0---12------14--|-----15------17--------|
A|-0-----------16------------------|-0-----------16------------------|-----------------------|
E|-----17--9-----------------------|-----17--9---------------12------|-13------15------17----|


G|-17--18------17----16--14-----14-14--|-17--18--17--16--14----------7---|-17--18--17--16--14------14------|
D|-------------------0---12--0-----12--|-----------------0---12--0-------|-----------------0---12------14--|
A|-0-----------16----------------------|-0-----------16------------------|-0-----------16------------------|
E|-----17--9---------------------------|-----17--9-----------------------|-----17--9---------------12------|


G|-14------16------18----|---------------------|---------------------|---------------------|
D|-----15------17--------|---------------------|---------------------|---------------------|
A|-----------------------|-17---15---14---12---|-10---8----7----5----|-3----2----0---------|
E|-13------15------17----|---------------------|---------------------|----------------3----|


G|---------------------|-7----5----4----2----|-0-------------------|-------------------|
D|----------------2----|---------------------|------3----2----0----|-------------------|
A|-0----2----3---------|---------------------|---------------------|-3-----3-----2-----|
E|---------------------|---------------------|---------------------|-------------------|


G|-9-----------|-17--18------17----16--14-----14-14--|-17--18--17--16--14----------7---|
D|-------------|-------------------0---12--0-----12--|-----------------0---12--0-------|
A|-------------|-0-----------16----------------------|-0-----------16------------------|
E|-------0-----|-----17--9---------------------------|-----17--9-----------------------|


G|-17--18--17--16--14------14------|-14------16------18----|-17--18------17----16--14-----14-14--|
D|-----------------0---12------14--|-----15------17--------|-------------------0---12--0-----12--|
A|-0-----------16------------------|-----------------------|-0-----------16----------------------|
E|-----17--9---------------12------|-13------15------17----|-----17--9---------------------------|


G|-17--18--17--16--14----------7---|-17--18--17--16--14------14------|-14------16------18----|
D|-----------------0---12--0-------|-----------------0---12------14--|-----15------17--------|
A|-0-----------16------------------|-0-----------16------------------|-----------------------|
E|-----17--9-----------------------|-----17--9---------------12------|-13------15------17----|


G|---------------------|---------------------|---------------------|---------------------|
D|---------------------|---------------------|---------------------|----------------2----|
A|-17---15---14---12---|-10---8----7----5----|-3----2----0---------|-0----2----3---------|
E|---------------------|---------------------|----------------3----|---------------------|


G|-7----5----4----2----|-0-------------------|-------------------|-------------|-17--18------17----16--14-----14-14--|
D|---------------------|------3----2----0----|-------------------|-2-----------|-------------------0---12--0-----12--|
A|---------------------|---------------------|-3-----3-----2-----|-------------|-0-----------16----------------------|
E|---------------------|---------------------|-------------------|-------0-----|-----17--9---------------------------|


G|-17--18--17--16--14----------7---|-17--18--17--16--14------14------|-14------16------18----|
D|-----------------0---12--0-------|-----------------0---12------14--|-----15------17--------|
A|-0-----------16------------------|-0-----------16------------------|-----------------------|
E|-----17--9-----------------------|-----17--9---------------12------|-13------15------17----|


G|-17--18------17----16--14-----14-14--|-17--18--17--16--14----------7---|-17--18--17--16--14------14------|
D|-------------------0---12--0-----12--|-----------------0---12--0-------|-----------------0---12------14--|
A|-0-----------16----------------------|-0-----------16------------------|-0-----------16------------------|
E|-----17--9---------------------------|-----17--9-----------------------|-----17--9---------------12------|


G|-14------16------18----|---------------------|---------------------|---------------------|
D|-----15------17--------|---------------------|---------------------|---------------------|
A|-----------------------|-17---15---14---12---|-10---8----7----5----|-3----2----0---------|
E|-13------15------17----|---------------------|---------------------|----------------3----|


G|---------------------|-7----5----4----2----|-0-------------------|-------------------|
D|----------------2----|---------------------|------3----2----0----|-------------------|
A|-0----2----3---------|---------------------|---------------------|-3-----3-----------|
E|---------------------|---------------------|---------------------|-------------------|


G|-------------|-17--18------17----16--14-----14-14--|-17--18--17--16--14----------7---|
D|-2-----------|-------------------0---12--0-----12--|-----------------0---12--0-------|
A|-------------|-0-----------16----------------------|-0-----------16------------------|
E|-------0-----|-----17--9---------------------------|-----17--9-----------------------|


G|-17--18--17--16--14------14------|-14------16------18----|--------|--------|--------|
D|-----------------0---12------14--|-----15------17--------|--------|--------|--------|
A|-0-----------16------------------|-----------------------|--------|--------|--------|
E|-----17--9---------------12------|-13------15------17----|--------|--------|--------|


G|--------|--------|
D|--------|--------|
A|--------|--------|
E|--------|--------|









Track 3: bass
Back to top
G|-------------|--------|--------|--------|--------|-------------------------------2---|
D|-------------|--------|--------|--------|--------|-----------------0---0---3--4------|
A|-------------|--------|--------|--------|--------|-0---0---3---4---------------------|
E|-------------|--------|--------|--------|--------|-----------------------------------|


G|-------------------------------2---|---------------------------------|---------0---0---2---------------|
D|-----------------0---0---3--4------|-----------------0---0---2---2---|-3---3---------------------------|
A|-0---0---3---4---------------------|-0---0---3---4-------------------|---------------------0---0---0---|
E|-----------------------------------|---------------------------------|---------------------------------|


G|-------------------------------2---|-------------------------------2---|---------------------------------|
D|-----------------0---0---3--4------|-----------------0---0---3--4------|-----------------0---0---2---2---|
A|-0---0---3---4---------------------|-0---0---3---4---------------------|-0---0---3---4-------------------|
E|-----------------------------------|-----------------------------------|---------------------------------|


G|---------0---0---2---------------|-7---7---5---5---4---4---2---2---|-0---0---------------------------|
D|-3---3---------------------------|---------------------------------|---------3---3---2---2---0---0---|
A|---------------------0---0---0---|---------------------------------|---------------------------------|
E|---------------------------------|---------------------------------|---------------------------------|


G|---------------------------------|---------------------------------|-7---7---5---5---4---4---2---2---|
D|---------------------------------|-------------------------2---2---|---------------------------------|
A|-3---3---2---2---0---0-----------|-0---0---2---2---3---3-----------|---------------------------------|
E|-------------------------3---3---|---------------------------------|---------------------------------|


G|-0---0---------------------------|-------------|-------------|-------------------------------2---|
D|---------3---3---2---2---0---0---|-------------|-------------|-----------------0---0---3--4------|
A|---------------------------------|-3-----2-----|-7-----------|-0---0---3---4---------------------|
E|---------------------------------|-------------|-------0-----|-----------------------------------|


G|-------------------------------2---|---------------------------------|---------0---0---2---------------|
D|-----------------0---0---3--4------|-----------------0---0---2---2---|-3---3---------------------------|
A|-0---0---3---4---------------------|-0---0---3---4-------------------|---------------------0---0---0---|
E|-----------------------------------|---------------------------------|---------------------------------|


G|-------------------------------2---|-------------------------------2---|---------------------------------|
D|-----------------0---0---3--4------|-----------------0---0---3--4------|-----------------0---0---2---2---|
A|-0---0---3---4---------------------|-0---0---3---4---------------------|-0---0---3---4-------------------|
E|-----------------------------------|-----------------------------------|---------------------------------|


G|---------0---0---2---------------|-7---7---5---5---4---4---2---2---|-0---0---------------------------|
D|-3---3---------------------------|---------------------------------|---------3---3---2---2---0---0---|
A|---------------------0---0---0---|---------------------------------|---------------------------------|
E|---------------------------------|---------------------------------|---------------------------------|


G|---------------------------------|---------------------------------|-7---7---5---5---4---4---2---2---|
D|---------------------------------|-------------------------2---2---|---------------------------------|
A|-3---3---2---2---0---0-----------|-0---0---2---2---3---3-----------|---------------------------------|
E|-------------------------3---3---|---------------------------------|---------------------------------|


G|-0---0---------------------------|-------------|-------------|-------------------------------2---|
D|---------3---3---2---2---0---0---|-------------|-------------|-----------------0---0---3--4------|
A|---------------------------------|-3-----2-----|-7-----------|-0---0---3---4---------------------|
E|---------------------------------|-------------|-------0-----|-----------------------------------|


G|-------------------------------2---|---------------------------------|---------0---0---2---------------|
D|-----------------0---0---3--4------|-----------------0---0---2---2---|-3---3---------------------------|
A|-0---0---3---4---------------------|-0---0---3---4-------------------|---------------------0---0---0---|
E|-----------------------------------|---------------------------------|---------------------------------|


G|-------------------------------2---|-------------------------------2---|---------------------------------|
D|-----------------0---0---3--4------|-----------------0---0---3--4------|-----------------0---0---2---2---|
A|-0---0---3---4---------------------|-0---0---3---4---------------------|-0---0---3---4-------------------|
E|-----------------------------------|-----------------------------------|---------------------------------|


G|---------0---0---2---------------|-7---7---5---5---4---4---2---2---|-0---0---------------------------|
D|-3---3---------------------------|---------------------------------|---------3---3---2---2---0---0---|
A|---------------------0---0---0---|---------------------------------|---------------------------------|
E|---------------------------------|---------------------------------|---------------------------------|


G|---------------------------------|---------------------------------|-7---7---5---5---4---4---2---2---|
D|---------------------------------|-------------------------2---2---|---------------------------------|
A|-3---3---2---2---0---0-----------|-0---0---2---2---3---3-----------|---------------------------------|
E|-------------------------3---3---|---------------------------------|---------------------------------|


G|-0---0---------------------------|-------------|-------------|-------------------------------2---|
D|---------3---3---2---2---0---0---|-------------|-------------|-----------------0---0---3--4------|
A|---------------------------------|-3-----2-----|-7-----------|-0---0---3---4---------------------|
E|---------------------------------|-------------|-------0-----|-----------------------------------|


G|-------------------------------2---|---------------------------------|---------0---0---2---------------|
D|-----------------0---0---3--4------|-----------------0---0---2---2---|-3---3---------------------------|
A|-0---0---3---4---------------------|-0---0---3---4-------------------|---------------------0---0---0---|
E|-----------------------------------|---------------------------------|---------------------------------|


G|---------------------------|--------------------|---------------------------|--------|
D|---------------------------|--------------------|---------------------------|--------|
A|-2---2----2---3----2---0---|-0-----0---0----0---|-2---2----2---3----2---0---|-0------|
E|---------------------------|--------------------|---------------------------|--------|


G|----------------|
D|----------------|
A|----------------|
E|----------------|









Track 4: guitar
Back to top
E|-------------|--------|--------|--------|--------|-----5-------5-------5-------5---|
B|-------------|--------|--------|--------|--------|-----5-------5-------7-------7---|
G|-------------|--------|--------|--------|--------|-----6-------6-------7-------7---|
D|-------------|--------|--------|--------|--------|-----7-------7-------7-------7---|
A|-------------|--------|--------|--------|--------|-----7-------7-------5-------5---|
E|-------------|--------|--------|--------|--------|-----5-------5-------------------|


E|-----5-------5-------5-------5---|-----5-------5-------5-------5---|-1---1---3---3-------5---5---5---|
B|-----5-------5-------7-------7---|-----5-------5-------7-------7---|-1---1---3---3-------5---5---5---|
G|-----6-------6-------7-------7---|-----6-------6-------7-------7---|-2---2---4---4-------6---6---6---|
D|-----7-------7-------7-------7---|-----7-------7-------7-------7---|-3---3---5---5-------7---7---7---|
A|-----7-------7-------5-------5---|-----7-------7-------5-------5---|-3---3---5---5-------7---7---7---|
E|-----5-------5-------------------|-----5-------5-------------------|-1---1---3---3-------5---5---5---|


E|-----5-------5--5------5-------5--5--|-----5-------5--5------5-------5--5--|-----5-------5--5------5-------5--5--|
B|-----5-------5--5------7-------7--7--|-----5-------5--5------7-------7--7--|-----5-------5--5------7-------7--7--|
G|-----6-------6--6------7-------7--7--|-----6-------6--6------7-------7--7--|-----6-------6--6------7-------7--7--|
D|-----7-------7--7------7-------7--7--|-----7-------7--7------7-------7--7--|-----7-------7--7------7-------7--7--|
A|-----7-------7--7------5-------5--5--|-----7-------7--7------5-------5--5--|-----7-------7--7------5-------5--5--|
E|-----5-------5--5--------------------|-----5-------5--5--------------------|-----5-------5--5--------------------|


E|-1---1---3---3-------5---5---5---|-----5-------5-------5-------5--5--|-----3-------3-------3-------3--3--|
B|-1---1---3---3-------5---5---5---|-----6-------6-------6-------6--6--|-----3-------3-------3-------3--3--|
G|-2---2---4---4-------6---6---6---|-----7-------7-------7-------7--7--|-----4-------4-------4-------4--4--|
D|-3---3---5---5-------7---7---7---|-----7-------7-------7-------7--7--|-----5-------5-------5-------5--5--|
A|-3---3---5---5-------7---7---7---|-----5-------5-------5-------5--5--|-----5-------5-------5-------5--5--|
E|-1---1---3---3-------5---5---5---|-----------------------------------|-----3-------3-------3-------3--3--|


E|-----3-------3-------3-------3--3--|-----5-------5-------5-------5--5--|-5---5---5---5---5---5---5---5---|
B|-----5-------5-------5-------5--5--|-----5-------5-------5-------5--5--|-6---6---6---6---6---6---6---6---|
G|-----5-------5-------5-------5--5--|-----5-------5-------5-------5--5--|-7---7---7---7---7---7---7---7---|
D|-----5-------5-------5-------5--5--|-----7-------7-------7-------7--7--|-7---7---7---7---7---7---7---7---|
A|-----3-------3-------3-------3--3--|-----7-------7-------7-------7--7--|-5---5---5---5---5---5---5---5---|
E|-----------------------------------|-----5-------5-------5-------5--5--|---------------------------------|


E|-3---3---3---3---3---3---3---3---|-3-----2-----|-7-----7-----|-----------------------------------|
B|-3---3---3---3---3---3---3---3---|-5-----3-----|-10----9-----|-----------------------------------|
G|-4---4---4---4---4---4---4---4---|-5-----2-----|-9-----9-----|-------------------------------2---|
D|-5---5---5---5---5---5---5---5---|-5-----4-----|-9-----9-----|-----------------0---0---3--4------|
A|-5---5---5---5---5---5---5---5---|-3-----2-----|-7-----7-----|-0---0---3---4---------------------|
E|-3---3---3---3---3---3---3---3---|-------------|-------------|-----------------------------------|


E|-----------------------------------|---------------------------------|---------------------5-----|
B|-----------------------------------|---------------------------------|---------------------------|
G|-------------------------------2---|---------------------------------|---------0---0---2---2-----|
D|-----------------0---0---3--4------|-----------------0---0---2---2---|-3---3---------------------|
A|-----0---3---4---------------------|-----0---3---4-------------------|---------------------------|
E|-----------------------------------|---------------------------------|---------------------------|


E|-----------------------------------|-----------------------------------|---------------------------------|
B|-----------------------------------|-----------------------------------|---------------------------------|
G|-------------------------------2---|-------------------------------2---|---------------------------------|
D|-----------------0---0---3--4------|-----------------0---0---3--4------|-----------------0---0---2---2---|
A|-0---0---3---4---------------------|-----0---3---4---------------------|-----0---3---4-------------------|
E|-----------------------------------|-----------------------------------|---------------------------------|


E|-----------------------|------10----------------------|-------------7---10--7------------------|
B|-----------------------|----------8---------------8---|-10-8--10-8--------------8--------------|
G|---------0---0---2-----|--------------10--7---10------|----------------------------9---7-------|
D|-3---3-----------------|------------------------------|----------------------------------------|
A|-----------------------|------------------------------|----------------------------------------|
E|-----------------------|------------------------------|----------------------------------------|


E|-------------0---1---0------1--0--1--3--|-5----0-----------------------|------1--0--1--3--5-----------5--|
B|------------------------1---------------|--------------0---1---3---5---|-3---------------------3---------|
G|------0---5-----------------------------|----------2-------------------|---------------------------------|
D|----------------------------------------|------------------------------|---------------------------------|
A|----------------------------------------|------------------------------|---------------------------------|
E|----------------------------------------|------------------------------|---------------------------------|


E|-5-----3-----3----1--3--7-----7--|-------------|-----------------------------|-----------------------------------|
B|---------------------------------|-------------|-----------------------------|-----------------------------------|
G|---------------------------------|-5-----4-----|-9---------------------------|-------------------------------2---|
D|---------------------------------|-5-----4-----|-9---------2--0-----0--------|-----------------0---0---3--4------|
A|---------------------------------|-3-----2-----|-7---------------3-----3--2--|-0---0---3---4---------------------|
E|---------------------------------|-------------|-0---------------------------|-----------------------------------|


E|-----------------------------------|---------------------------------|-----------------------|
B|-----------------------------------|---------------------------------|-----------------------|
G|-------------------------------2---|---------------------------------|---------0---0---2-----|
D|-----------------0---0---3--4------|-----------------0---0---2---2---|-3---3-----------------|
A|-----0---3---4---------------------|-----0---3---4-------------------|-----------------------|
E|-----------------------------------|---------------------------------|-----------------------|


E|-----------------------------------|-----------------------------------|---------------------------------|
B|-----------------------------------|-----------------------------------|---------------------------------|
G|-------------------------------2---|-------------------------------2---|---------------------------------|
D|-----------------0---0---3--4------|-----------------0---0---3--4------|-----------------0---0---2---2---|
A|-0---0---3---4---------------------|-----0---3---4---------------------|-----0---3---4-------------------|
E|-----------------------------------|-----------------------------------|---------------------------------|


E|-----------------------|-----5-------5-------5-------5--5--|-----3-------3-------3-------3--3--|
B|-----------------------|-----6-------6-------6-------6--6--|-----3-------3-------3-------3--3--|
G|---------0---0---2-----|-----7-------7-------7-------7--7--|-----4-------4-------4-------4--4--|
D|-3---3-----------------|-----7-------7-------7-------7--7--|-----5-------5-------5-------5--5--|
A|-----------------------|-----5-------5-------5-------5--5--|-----5-------5-------5-------5--5--|
E|-----------------------|-----------------------------------|-----3-------3-------3-------3--3--|


E|-----3-------3-------3-------3--3--|-----5-------5-------5-------5--5--|-5---5---5---5---5---5---5---5---|
B|-----5-------5-------5-------5--5--|-----5-------5-------5-------5--5--|-6---6---6---6---6---6---6---6---|
G|-----5-------5-------5-------5--5--|-----5-------5-------5-------5--5--|-7---7---7---7---7---7---7---7---|
D|-----5-------5-------5-------5--5--|-----7-------7-------7-------7--7--|-7---7---7---7---7---7---7---7---|
A|-----3-------3-------3-------3--3--|-----7-------7-------7-------7--7--|-5---5---5---5---5---5---5---5---|
E|-----------------------------------|-----5-------5-------5-------5--5--|---------------------------------|


E|-3---3---3---3---3---3---3---3---|-3-----2-----|-7---------------------------|-----------------------------------|
B|-3---3---3---3---3---3---3---3---|-5-----3-----|-10--------------------------|-----------------------------------|
G|-4---4---4---4---4---4---4---4---|-5-----2-----|-9---------------------------|-------------------------------2---|
D|-5---5---5---5---5---5---5---5---|-5-----4-----|-9---------2--0-----0--------|-----------------0---0---3--4------|
A|-5---5---5---5---5---5---5---5---|-3-----2-----|-7---------------3-----3--2--|-0---0---3---4---------------------|
E|-3---3---3---3---3---3---3---3---|-------------|-----------------------------|-----------------------------------|


E|-----------------------------------|---------------------------------|---------------------5-----|
B|-----------------------------------|---------------------------------|---------------------------|
G|-------------------------------2---|---------------------------------|---------0---0---2---------|
D|-----------------0---0---3--4------|-----------------0---0---2---2---|-3---3---------------------|
A|-----0---3---4---------------------|-0---0---3---4-------------------|---------------------------|
E|-----------------------------------|---------------------------------|---------------------------|


E|---------------------------|-5-----------|--------------------|-------------|--------|
B|---------------------------|-------------|--------------------|-------------|--------|
G|-4---4----4---5----4---2---|-2-----2-----|-4-----5----4---2---|-2-----------|--------|
D|---------------------------|-------------|--------------------|-------------|--------|
A|---------------------------|-------------|--------------------|-------------|--------|
E|---------------------------|-------------|--------------------|-------------|--------|









Track 5: VOX
Back to top
E|-------------|--------|--------|--------|--------|--------------------------------------|
B|-------------|--------|--------|--------|--------|-2-----2-------1-----0----------------|
G|-------------|--------|--------|--------|--------|---------------------------2----2-----|
D|-------------|--------|--------|--------|--------|--------------------------------------|
A|-------------|--------|--------|--------|--------|--------------------------------------|
E|-------------|--------|--------|--------|--------|--------------------------------------|


E|--------------------------------------|-----------0---------2-----0---------------|
B|-1-----2-----0------------------------|-2-----2-------2-----------------1---0-----|
G|-------------------------2----2-------|-------------------------------------------|
D|-------------------4------------------|-------------------------------------------|
A|--------------------------------------|-------------------------------------------|
E|--------------------------------------|-------------------------------------------|


E|---------------------|-------------------------------|-------------------------------|
B|------0--------------|-2-----2----1---0---0----------|-2-----2-----1---0-------------|
G|-2---------2---------|--------------------2----2-----|---------------------2---------|
D|---------------------|-------------------------------|-------------------------------|
A|---------------------|-------------------------------|-------------------------------|
E|---------------------|-------------------------------|-------------------------------|


E|-----------0---------2-----0---------------|---------------------|-------------------------------------------------|
B|-2-----2-------2---------------2-----0-----|------0----2---------|-3-----3-----3-----1-----3-----1-----3-----1-----|
G|-------------------------------------------|-2-------------------|-------------------------------------------------|
D|-------------------------------------------|---------------------|-------------------------------------------------|
A|-------------------------------------------|---------------------|-------------------------------------------------|
E|-------------------------------------------|---------------------|-------------------------------------------------|


E|--------------------|----------------------------------------0----|----------------|
B|-3------------------|-1-----1-----1-----1-----1-----1-----3-------|----------------|
G|---------0----------|---------------------------------------------|-2------2-------|
D|--------------------|---------------------------------------------|----------------|
A|--------------------|---------------------------------------------|----------------|
E|--------------------|---------------------------------------------|----------------|


E|-------------------------------------------------|-------------|-0---------------|
B|-3-----3-----3-----1-----3-----1-----3-----1-----|-3-----------|-------3----0----|
G|-------------------------------------------------|------0------|-----------------|
D|-------------------------------------------------|-------------|-----------------|
A|-------------------------------------------------|-------------|-----------------|
E|-------------------------------------------------|-------------|-----------------|


E|-0------0-------|--------------------------------------|--------------------------------------|
B|----------------|-2-----2-------1-----0----------------|-1-----2-----0------------------------|
G|----------------|---------------------------2----2-----|-------------------------2----2-------|
D|----------------|--------------------------------------|-------------------4------------------|
A|----------------|--------------------------------------|--------------------------------------|
E|----------------|--------------------------------------|--------------------------------------|


E|-----------0---------2-----0---------------|-----------------5----5---|-5-----5---5----------|
B|-2-----2-------2-----------------1---0-----|------0-------------------|----------------------|
G|-------------------------------------------|-2---------2---2----------|----------------------|
D|-------------------------------------------|--------------------------|----------------------|
A|-------------------------------------------|--------------------------|----------------------|
E|-------------------------------------------|--------------------------|----------------------|


E|--------|--------|--------|--------|--------|--------|--------|--------|--------|
B|--------|--------|--------|--------|--------|--------|--------|--------|--------|
G|--------|--------|--------|--------|--------|--------|--------|--------|--------|
D|--------|--------|--------|--------|--------|--------|--------|--------|--------|
A|--------|--------|--------|--------|--------|--------|--------|--------|--------|
E|--------|--------|--------|--------|--------|--------|--------|--------|--------|


E|-0---------------|-0------0-------|--------------------------------------|--------------------------------------|
B|-------3----0----|----------------|-2-----2-------1-----0----------------|-1-----2-----0------------------------|
G|-----------------|----------------|---------------------------2----2-----|-------------------------2----2-------|
D|-----------------|----------------|--------------------------------------|-------------------4------------------|
A|-----------------|----------------|--------------------------------------|--------------------------------------|
E|-----------------|----------------|--------------------------------------|--------------------------------------|


E|-----------0---------2-----0---------------|---------------------|--------|--------|
B|-2-----2-------2-----------------1---0-----|------0--------------|--------|--------|
G|-------------------------------------------|-2---------2---------|--------|--------|
D|-------------------------------------------|---------------------|--------|--------|
A|-------------------------------------------|---------------------|--------|--------|
E|-------------------------------------------|---------------------|--------|--------|


E|--------|--------|-------------------------------------------------|--------------------|
B|--------|--------|-3-----3-----3-----1-----3-----1-----3-----1-----|-3------------------|
G|--------|--------|-------------------------------------------------|---------0----------|
D|--------|--------|-------------------------------------------------|--------------------|
A|--------|--------|-------------------------------------------------|--------------------|
E|--------|--------|-------------------------------------------------|--------------------|


E|----------------------------------------0----|----------------|-------------------------------------------------|
B|-1-----1-----1-----1-----1-----1-----3-------|----------------|-3-----3-----3-----1-----3-----1-----3-----1-----|
G|---------------------------------------------|-2------2-------|-------------------------------------------------|
D|---------------------------------------------|----------------|-------------------------------------------------|
A|---------------------------------------------|----------------|-------------------------------------------------|
E|---------------------------------------------|----------------|-------------------------------------------------|


E|-------------|-0---------------|-0------0-------|--------------------------------------|
B|-3-----------|-------3----0----|----------------|-2-----2-------1-----0----------------|
G|------0------|-----------------|----------------|---------------------------2----2-----|
D|-------------|-----------------|----------------|--------------------------------------|
A|-------------|-----------------|----------------|--------------------------------------|
E|-------------|-----------------|----------------|--------------------------------------|


E|--------------------------------------|-----------0---------2-----0---------------|
B|-1-----2-----0------------------------|-2-----2-------2-----------------1---0-----|
G|-------------------------2----2-------|-------------------------------------------|
D|-------------------4------------------|-------------------------------------------|
A|--------------------------------------|-------------------------------------------|
E|--------------------------------------|-------------------------------------------|


E|-----------------5----5---|-5------|-5-----------|--------|--------|--------|
B|------0----2---2----------|--------|-------------|--------|--------|--------|
G|-2------------------------|--------|-------------|--------|--------|--------|
D|--------------------------|--------|-------------|--------|--------|--------|
A|--------------------------|--------|-------------|--------|--------|--------|
E|--------------------------|--------|-------------|--------|--------|--------|









Track 6: Drums
Back to top
C|---------------------|-44--42-42-44--42-42-44--42-42-44--42-42-|-44--42-42-44--42-42-44--42-42-44--42-42-|
C|---------------------|-----------------------------------------|-----------------------------------------|
C|-31---31---31---31---|-----------------------------------------|-----------------------------------------|
C|---------------------|-----------------------------------------|-----------------------------------------|
C|---------------------|-----38--------38--------38--------38----|-----38--------38--------38--------38----|
C|---------------------|-36--------------------------------------|-36--------------------------------------|


C|-44--42-42-44--42-42-44--42-42-44--42-42-|-44--42-42-44--42-42-44--42-42-44--42-42-|
C|-----------------------------------------|-----------------------------------------|
C|-----------------------------------------|-----------------------------------------|
C|-----------------------------------------|-----------------------------------------|
C|-----38--------38--------38--------38----|-----38--------38--------38----38--38----|
C|-36--------------------------------------|-36--------36------------36----36--36----|


C|-49--42--42--44--42--42--42--44--|-42--42--42--44--42--42--42--44--|-42--42--42--44--42--42--42--44--|
C|---------------------------------|---------------------------------|---------------------------------|
C|---------------------------------|---------------------------------|---------------------------------|
C|---------------------------------|---------------------------------|---------------------------------|
C|---------38--------------38------|---------38--------------38------|---------38--------------38------|
C|-36--36----------36--36----------|-36--36----------36--36----------|-36--36----------36--36----------|


C|-42--42--42--44--42--42--42--44--|-49--42--42--44--42--42--42--44--|-42--42--42--44--42--42--42--44--|
C|---------------------------------|---------------------------------|---------------------------------|
C|---------------------------------|---------------------------------|---------------------------------|
C|---------------------------------|---------------------------------|---------------------------------|
C|---------38--------------38------|---------38--------------38------|---------38--------------38------|
C|-36--36----------36--36----------|-36--36----------36--36----------|-36--36----------36--36----------|


C|-42--42--42--44--42--42--42--44--|-42--42--42--44--42--42--42--44----|-57--42--46--42--44--42--46--42--|
C|---------------------------------|-----------------------------------|---------------------------------|
C|---------------------------------|-----------------------------------|---------------------------------|
C|---------------------------------|-----------------------------------|---------------------------------|
C|---------38--------------38------|---------38--------------38--38-38-|---------38--------------38------|
C|-36--36----------36--36----------|-36--36----------36--36------------|-36----------36--36--------------|


C|-44--42--46--42--44--42--46--42--|-44--42--46--42--44--42--46--42--|-44--42--46--42--44--42--46--42--|
C|---------------------------------|---------------------------------|---------------------------------|
C|---------------------------------|---------------------------------|---------------------------------|
C|---------------------------------|---------------------------------|---------------------------------|
C|---------38--------------38------|---------38--------------38------|---------38--------------38------|
C|-36----------36--36--------------|-36----------36--36--------------|-36----------36--36--------------|


C|-57--42--46--42--44--42--46--42--|-44--42--46--42--44--42--46--42--|-49----57----|
C|---------------------------------|---------------------------------|-------------|
C|---------------------------------|---------------------------------|-------------|
C|---------------------------------|---------------------------------|-------------|
C|---------38--------------38------|---------38--------------38------|-------------|
C|-36----------36--36--------------|-36----------36--36--------------|-------------|


C|-49----49------------------|-49--42--42--44--42--42--42--44--|-42--42--42--44--42--42--42--44--|
C|-------57------------------|---------------------------------|---------------------------------|
C|---------------------------|---------------------------------|---------------------------------|
C|---------------------------|---------------------------------|---------------------------------|
C|---------------38-38-38-38-|---------38--------------38------|---------38--------------38------|
C|-----------36--------------|-36--36----------36--36----------|-36--36----------36--36----------|


C|-42--42--42--44--42--42--42--44--|-42--42--42--44--42--42--42--44--|-49--42--42--44--42--42--42--44--|
C|---------------------------------|---------------------------------|---------------------------------|
C|---------------------------------|---------------------------------|---------------------------------|
C|---------------------------------|---------------------------------|---------------------------------|
C|---------38--------------38------|---------38--------------38------|---------38--------------38------|
C|-36--36----------36--36----------|-36--36----------36--36----------|-36--36----------36--36----------|


C|-42--42--42--44--42--42--42--44--|-42--42--42--44--42--42--42--44--|-42--42--42--44--42--42--42--44--|
C|---------------------------------|---------------------------------|---------------------------------|
C|---------------------------------|---------------------------------|---------------------------------|
C|---------------------------------|---------------------------------|---------------------------------|
C|---------38--------------38------|---------38--------------38------|---------38--------------38------|
C|-36--36----------36--36----------|-36--36----------36--36----------|-36--36----------36--36----------|


C|-49--42--46--42--44--42--46--42----|-44--42--46--42--44--42--46--42--|-44--42--46--42--44--42--46--42--|
C|-----------------------------------|---------------------------------|---------------------------------|
C|-----------------------------------|---------------------------------|---------------------------------|
C|-----------------------------------|---------------------------------|---------------------------------|
C|---------38--------------38--38-38-|---------38--------------38------|---------38--------------38------|
C|-36----------36--36----------------|-36----------36--36--------------|-36----------36--36--------------|


C|-44--42--46--42--44--42--46--42--|-57--42--46--42--44--42--46--42--|-44--42--46--42--44--42--46--42--|
C|---------------------------------|---------------------------------|---------------------------------|
C|---------------------------------|---------------------------------|---------------------------------|
C|---------------------------------|---------------------------------|---------------------------------|
C|---------38--------------38------|---------38--------------38------|---------38--------------38------|
C|-36----------36--36--------------|-36----------36--36--------------|-36----------36--36--------------|


C|-49----57----|-49----49------------------|-49--42--42--44--42--42--42--44--|-42--42--42--44--42--42--42--44--|
C|-------------|-------57------------------|---------------------------------|---------------------------------|
C|-------------|---------------------------|---------------------------------|---------------------------------|
C|-------------|---------------------------|---------------------------------|---------------------------------|
C|-------------|---------------38-38-38-38-|---------38--------------38------|---------38--------------38------|
C|-------------|-----------36--------------|-36--36----------36--36----------|-36--36----------36--36----------|


C|-42--42--42--44--42--42--42--44--|-42--42--42--44--42--42--42--44--|-49--42--42--44--42--42--42--44--|
C|---------------------------------|---------------------------------|---------------------------------|
C|---------------------------------|---------------------------------|---------------------------------|
C|---------------------------------|---------------------------------|---------------------------------|
C|---------38--------------38------|---------38--------------38------|---------38--------------38------|
C|-36--36----------36--36----------|-36--36----------36--36----------|-36--36----------36--36----------|


C|-42--42--42--44--42--42--42--44--|-42--42--42--44--42--42--42--44--|-42--42--42--44--42--42--42--44----|
C|---------------------------------|---------------------------------|-----------------------------------|
C|---------------------------------|---------------------------------|-----------------------------------|
C|---------------------------------|---------------------------------|-----------------------------------|
C|---------38--------------38------|---------38--------------38------|---------38--------------38--38-38-|
C|-36--36----------36--36----------|-36--36----------36--36----------|-36--36----------36--36------------|


C|-49--42--46--42--44--42--46--42--|-44--42--46--42--44--42--46--42--|-44--42--46--42--44--42--46--42--|
C|---------------------------------|---------------------------------|---------------------------------|
C|---------------------------------|---------------------------------|---------------------------------|
C|---------------------------------|---------------------------------|---------------------------------|
C|---------38--------------38------|---------38--------------38------|---------38--------------38------|
C|-36----------36--36--------------|-36----------36--36--------------|-36----------36--36--------------|


C|-44--42--46--42--44--42--46--42--|-57--42--46--42--44--42--46--42--|-44--42--46--42--44--42--46--42--|
C|---------------------------------|---------------------------------|---------------------------------|
C|---------------------------------|---------------------------------|---------------------------------|
C|---------------------------------|---------------------------------|---------------------------------|
C|---------38--------------38------|---------38--------------38------|---------38--------------38------|
C|-36----------36--36--------------|-36----------36--36--------------|-36----------36--36--------------|


C|-49----57----|-49----49------------------|-49--42--42--44--42--42--42--44--|-42--42--42--44--42--42--42--44--|
C|-------------|-------57------------------|---------------------------------|---------------------------------|
C|-------------|---------------------------|---------------------------------|---------------------------------|
C|-------------|---------------------------|---------------------------------|---------------------------------|
C|-------------|---------------38-38-38-38-|---------38--------------38------|---------38--------------38------|
C|-------------|-----------36--------------|-36--36----------36--36----------|-36--36----------36--36----------|


C|-42--42--42--44--42--42--42--44--|-42--42--42--44--42--42--42--42-42-|-42--42--42--44--42--42--42--44--|
C|---------------------------------|-----------------------------------|---------------------------------|
C|---------------------------------|-----------------------------------|---------------------------------|
C|---------------------------------|-----------------------------------|---------------------------------|
C|---------38--------------38------|---------38--------------38--------|---------38--------------38------|
C|-36--36----------36--36----------|-36--36----------36--36------------|-36--36----------36--36----------|


C|-44--44----44--44--42--42--42--42-42-|-42--42--42--42-42-42--42--44--57--|-57-----|
C|-------------------------------------|-------------------------------49--|-49-----|
C|-------------------------------------|-----------------------------------|--------|
C|-------------------------------------|-----------------------------------|--------|
C|-----38-38-38--38----------38--------|---------38----------------38--38--|-38-----|
C|-------------------36--36------------|-36--36------------36--36------36--|-36-----|


C|----------------|
C|----------------|
C|----------------|
C|----------------|
C|----------------|
C|----------------|



← Back to top