Fade To Black (Cunning Stunts Version)

by Metallica

Guitar Pro Tab  |  v3.00  |  Posted on March 29, 2007, 10:56 a.m. ← Back

Guitar Pro Tab Summary

Album

Cunning Stunts Video

Song Author

Metallica

Tabbed by

alien_surfer@bol.com.br

Instruments

1st → James Hetfield
2nd → Jasonedewsted
3rd → Kirk Hammetd
4th → Larsurs´┐Żo

File Size

71 KB

Views

54,371






Related guitar pro tabs

Tablature Sheet

Title: Fade To Black (Cunning Stunts Version)
Artist: Metallica
Album: Cunning Stunts Video
Author: Metallica






Track 1: James
Back to top
E|--------|--------|--------|--------|--------|--------|--------|--------|--------|
B|--------|--------|--------|--------|--------|--------|--------|--------|--------|
G|--------|--------|--------|--------|--------|--------|--------|--------|--------|
D|--------|--------|--------|--------|--------|--------|--------|--------|--------|
A|--------|--------|--------|--------|--------|--------|--------|--------|--------|
E|--------|--------|--------|--------|--------|--------|--------|--------|--------|


E|--------|--------|--------|--------|--------|--------|--------|--------|--------|
B|--------|--------|--------|--------|--------|--------|--------|--------|--------|
G|--------|--------|--------|--------|--------|--------|--------|--------|--------|
D|--------|--------|--------|--------|--------|--------|--------|--------|--------|
A|--------|--------|--------|--------|--------|--------|--------|--------|--------|
E|--------|--------|--------|--------|--------|--------|--------|--------|--------|


E|--------|--------|--------|--------|--------|--------|--------|--------|--------|
B|--------|--------|--------|--------|--------|--------|--------|--------|--------|
G|--------|--------|--------|--------|--------|--------|--------|--------|--------|
D|--------|--------|--------|--------|--------|--------|--------|--------|--------|
A|--------|--------|--------|--------|--------|--------|--------|--------|--------|
E|--------|--------|--------|--------|--------|--------|--------|--------|--------|


E|--------|--------|--------|--------|--------|---------------------|---------------------|
B|--------|--------|--------|--------|--------|---------------------|---------------------|
G|--------|--------|--------|--------|--------|-----------0---------|---------------------|
D|--------|--------|--------|--------|--------|------4---------4----|------4---------4----|
A|--------|--------|--------|--------|--------|-2-------------------|-2---------5---------|
E|--------|--------|--------|--------|--------|---------------------|---------------------|


E|---------------------|---------------------|---------------------|---------------------|
B|---------------------|---------------------|---------------------|---------------------|
G|-----------0---------|---------------------|-----------0---------|---------------------|
D|------4---------4----|------4---------4----|------4---------4----|------4---------4----|
A|-0-------------------|-0---------5---------|-2-------------------|-2---------5---------|
E|---------------------|---------------------|---------------------|---------------------|


E|---------------------|---------------------|---------------------|---------------------|
B|---------------------|---------------------|---------------------|---------------------|
G|-----------2---------|---------------------|-----------0---------|---------------------|
D|------2---------2----|------2---------2----|------4---------4----|------4---------4----|
A|-4-------------------|-4---------0---------|-2-------------------|-2---------5---------|
E|---------------------|---------------------|---------------------|---------------------|


E|---------------------|---------------------|---------------------|---------------------|
B|---------------------|---------------------|---------------------|---------------------|
G|-----------0---------|---------------------|-----------0---------|---------------------|
D|------4---------4----|------4---------4----|------4---------4----|------4---------4----|
A|-0-------------------|-0---------5---------|-2-------------------|-2---------5---------|
E|---------------------|---------------------|---------------------|---------------------|


E|---------------------|---------------------|---------------------|---------------------|
B|---------------------|---------------------|---------------------|---------------------|
G|-----------2---------|---------------------|-----------0---------|---------------------|
D|------2---------2----|------2---------2----|------4---------4----|------4---------4----|
A|-4-------------------|-4---------0---------|-2-------------------|-2---------5---------|
E|---------------------|---------------------|---------------------|---------------------|


E|---------------------|---------------------|---------------------|---------------------|
B|---------------------|---------------------|---------------------|---------------------|
G|-----------0---------|---------------------|-----------0---------|---------------------|
D|------4---------4----|------4---------4----|------4---------4----|------4---------4----|
A|-0-------------------|-0---------5---------|-2-------------------|-2---------5---------|
E|---------------------|---------------------|---------------------|---------------------|


E|---------------------|---------------------|---------------------|---------------------|
B|---------------------|---------------------|---------------------|---------------------|
G|-----------2---------|---------------------|-----------0---------|---------------------|
D|------2---------2----|------2---------2----|------4---------4----|------4---------4----|
A|-4-------------------|-4---------0---------|-2-------------------|-2---------5---------|
E|---------------------|---------------------|---------------------|---------------------|


E|---------------------|---------------------|---------------------|---------------------|
B|---------------------|---------------------|---------------------|---------------------|
G|-----------0---------|---------------------|-----------0---------|---------------------|
D|------4---------4----|------4---------4----|------4---------4----|------4---------4----|
A|-0-------------------|-0---------5---------|-2-------------------|-2---------5---------|
E|---------------------|---------------------|---------------------|---------------------|


E|---------------------|---------------------|---------------------|---------------------|
B|---------------------|---------------------|---------------------|---------------------|
G|-----------2---------|---------------------|-----------0---------|---------------------|
D|------2---------2----|------2---------2----|------4---------4----|------4---------4----|
A|-4-------------------|-4---------0---------|-2-------------------|-2---------5---------|
E|---------------------|---------------------|---------------------|---------------------|


E|---------------------|---------------------|---------------------|---------------------|
B|---------------------|---------------------|---------------------|---------------------|
G|-----------0---------|---------------------|-----------0---------|---------------------|
D|------4---------4----|------4---------4----|------4---------4----|------4---------4----|
A|-0-------------------|-0---------5---------|-2-------------------|-2---------5---------|
E|---------------------|---------------------|---------------------|---------------------|


E|---------------------|---------------------|---------------------|---------------------|
B|---------------------|---------------------|---------------------|---------------------|
G|-----------2---------|---------------------|---------------------|---------------------|
D|------2---------2----|------2---------2----|-----------0---------|-----------2---------|
A|-4-------------------|-4---------0---------|------3--------------|------2---------2----|
E|---------------------|---------------------|-1--------------1----|-4-------------------|


E|---------------------|---------------------|---------------------|-0----------------------|
B|---------------------|-----------0----3----|-0----1--------------|-------------------1----|
G|-----------1---------|------1--------------|-2---------2---------|-----------0---2--------|
D|------2--------------|-2-------------------|-2--------------2----|------2-----------------|
A|-2--------------2----|---------------------|-0-------------------|------------------------|
E|---------------------|---------------------|---------------------|------------------------|


E|-----------------|-0----------------------|-----------------|-3---------3----3----|
B|-------1---------|-------------------0----|-0-----3---------|---------------------|
G|-0---------------|-----------0---2--------|-----------------|-----------2----0----|
D|-2----------2----|------2-----------------|------------0----|------0--------------|
A|-3---------------|------------------------|-----------------|---------------------|
E|-----------------|------------------------|-3---------------|---------------------|


E|-----------------|-------------------|---------------------|-0----------------------|
B|-----------------|-0-----1-3-----3---|-0----1--------------|-------------------1----|
G|-0---------------|-0-----2-4-----4---|-2---------2---------|-----------0---2--------|
D|-------2---------|-------------------|-2--------------2----|------2-----------------|
A|------------2----|-------------------|-0-------------------|------------------------|
E|-0---------------|-------------------|---------------------|------------------------|


E|-----------------|-0----------------------|-----------------|-3--------------------------|
B|-------1---------|-------------------0----|-0-----3---------|----------------------------|
G|-0---------------|-----------0---2--------|-----------------|-----------0---2---0---0----|
D|-2----------2----|------2-----------------|------------0----|------0---------------------|
A|-3---------------|------------------------|-----------------|----------------------------|
E|-----------------|------------------------|-3---------------|----------------------------|


E|-0-------------------|-------------------|---------------------|-0----------------------|
B|-0-------------------|-0-----1-3-----3---|-0----1--------------|-------------------1----|
G|-0-------------------|-0-----2-4-----4---|-2---------2---------|-----------0---2--------|
D|-2---------2---------|-------------------|-2--------------2----|------2-----------------|
A|----------------2----|-------------------|-0-------------------|------------------------|
E|------0--------------|-------------------|---------------------|------------------------|


E|-----------------|-0----------------------|-----------------|-3---------3----3----|
B|-------1---------|-------------------0----|-0-----3---------|---------------------|
G|-0---------------|-----------0---2--------|-----------------|-----------2----0----|
D|-2----------2----|------2-----------------|------------0----|------0--------------|
A|-3---------------|------------------------|-----------------|---------------------|
E|-----------------|------------------------|-3---------------|---------------------|


E|-----------------|-------------------|---------------------|-0----------------------|
B|-----------------|-0-----1-3-----3---|-0----1--------------|-------------------1----|
G|-0---------------|-0-----2-4-----4---|-2---------2---------|-----------0---2--------|
D|-------2---------|-------------------|-2--------------2----|------2-----------------|
A|------------2----|-------------------|-0-------------------|------------------------|
E|-0---------------|-------------------|---------------------|------------------------|


E|-----------------|-0----------------------|-----------------|-3-------------------|
B|-------1---------|-------------------0----|-0-----3---------|-----------3---------|
G|-0---------------|-----------0---2--------|-----------------|----------------2----|
D|-2----------2----|------2-----------------|------------0----|------0--------------|
A|-3---------------|------------------------|-----------------|---------------------|
E|-----------------|------------------------|-3---------------|---------------------|


E|-----------------|-------------------|---------------------|-0----------------------|
B|-----------------|-0-----1-3-----3---|-0----1--------------|-------------------1----|
G|-0---------------|-0-----2-4-----4---|-2---------2---------|-----------0---2--------|
D|-------2---------|-------------------|-2--------------2----|------2-----------------|
A|------------2----|-------------------|-0-------------------|------------------------|
E|-3---------------|-------------------|---------------------|------------------------|


E|-----------------|-0----------------------|-----------------|-3---------3----3----|
B|-------1---------|-------------------0----|-0-----3---------|---------------------|
G|-0---------------|-----------0---2--------|-----------------|-----------2----0----|
D|-2----------2----|------2-----------------|------------0----|------0--------------|
A|-3---------------|------------------------|-----------------|---------------------|
E|-----------------|------------------------|-3---------------|---------------------|


E|-----------------|-------------------|---------------------|-0----------------------|
B|-----------------|-0-----1-3-----3---|-0----1--------------|-------------------1----|
G|-0---------------|-0-----2-4-----4---|-2---------2---------|-----------0---2--------|
D|-------2---------|-------------------|-2--------------2----|------2-----------------|
A|------------2----|-------------------|-0-------------------|------------------------|
E|-0---------------|-------------------|---------------------|------------------------|


E|-----------------|-0----------------------|-----------------|-3--------------------------|
B|-------1---------|-------------------0----|-0-----3---------|----------------------------|
G|-0---------------|-----------0---2--------|-----------------|-----------0---2---0---0----|
D|-2----------2----|------2-----------------|------------0----|------0---------------------|
A|-3---------------|------------------------|-----------------|----------------------------|
E|-----------------|------------------------|-3---------------|----------------------------|


E|-0-------------------|-----------------------|---------------------|-0----------------------|
B|-0-------------------|-0---------1-3-----3---|-0----1--------------|-------------------1----|
G|-0-------------------|-0---------2-4-----4---|-2---------2---------|-----------0---2--------|
D|-2---------2---------|-----------------------|-2--------------2----|------2-----------------|
A|----------------2----|-----------------------|-0-------------------|------------------------|
E|------0--------------|-----------------------|---------------------|------------------------|


E|-----------------|-0----------------------|-----------------|-3---------3----3----|
B|-------1---------|-------------------0----|-0-----3---------|---------------------|
G|-0---------------|-----------0---2--------|-----------------|-----------2----0----|
D|-2----------2----|------2-----------------|------------0----|------0--------------|
A|-3---------------|------------------------|-----------------|---------------------|
E|-----------------|------------------------|-3---------------|---------------------|


E|-----------------|-------------------|---------------------|-0----------------------|
B|-----------------|-0-----1-3-----3---|-0----1--------------|-------------------1----|
G|-0---------------|-0-----2-4-----4---|-2---------2---------|-----------0---2--------|
D|-------2---------|-------------------|-2--------------2----|------2-----------------|
A|------------2----|-------------------|-0-------------------|------------------------|
E|-0---------------|-------------------|---------------------|------------------------|


E|-----------------|-0----------------------|-----------------|-3-------------------|
B|-------1---------|-------------------0----|-0-----3---------|-----------3---------|
G|-0---------------|-----------0---2--------|-----------------|----------------2----|
D|-2----------2----|------2-----------------|------------0----|------0--------------|
A|-3---------------|------------------------|-----------------|---------------------|
E|-----------------|------------------------|-3---------------|---------------------|


E|---------------------|---------------------|-------------|------------------------|
B|---------------------|---------------------|-------------|------------------------|
G|---------------------|---------------------|-2------2----|-2----------------------|
D|---------------------|---------------------|-2------2----|-2----------------------|
A|-2----2----2----2----|-2----2----2----2----|-0------0----|-0-----------------5----|
E|-0----0----0----0----|-0----0----0----0----|-------------|------0---0---3---------|


E|-------------|------------------------|-------------|---------------------------|
B|-------------|------------------------|-------------|---------------------------|
G|-5------5----|-5----------------------|-2------2----|-2----7---0---7----0---0---|
D|-5------5----|-5----------------------|-2------2----|-2----7---0---7----0---0---|
A|-3------3----|-3-----------------5----|-0------0----|-0----5---0---5----0---0---|
E|-------------|------0---0---3---------|-------------|---------------------------|


E|-------------|------------------------|-------------|------------------------|-------------|
B|-------------|------------------------|-------------|------------------------|-------------|
G|-9------9----|-9------------5----4----|-2------2----|-2----------------------|-5------5----|
D|-9------9----|-9------------5----4----|-2------2----|-2----------------------|-5------5----|
A|-7------7----|-7------------3----2----|-0------0----|-0-----------------5----|-3------3----|
E|-------------|------0---0-------------|-------------|------0---0---3---------|-------------|


E|------------------------|-------------|---------------------|--------|-------------|
B|------------------------|-------------|---------------------|--------|-------------|
G|-5----------------------|-2------2----|-2-------------------|--------|-------------|
D|-5----------------------|-2------2----|-2-------------------|-2------|-2-----9-----|
A|-3-----------------5----|-0------0----|-0---------5----4----|-2------|-2-----------|
E|------0---0---3---------|-------------|------0----3----2----|-0------|-0-----------|


E|-------------|------------------------|-------------|------------------------|-------------|
B|-------------|------------------------|-------------|------------------------|-------------|
G|-2------2----|-2----------------------|-5------5----|-5----------------------|-2------2----|
D|-2------2----|-2----------------------|-5------5----|-5----------------------|-2------2----|
A|-0------0----|-0-----------------5----|-3------3----|-3-----------------5----|-0------0----|
E|-------------|------0---0---3---------|-------------|------0---0---3---------|-------------|


E|---------------------------|-------------|------------------------|-------------|
B|---------------------------|-------------|------------------------|-------------|
G|-2----7---0---7----0---0---|-9------9----|-9------------5----4----|-2------2----|
D|-2----7---0---7----0---0---|-9------9----|-9------------5----4----|-2------2----|
A|-0----5---0---5----0---0---|-7------7----|-7------------3----2----|-0------0----|
E|---------------------------|-------------|------0---0-------------|-------------|


E|------------------------|-------------|------------------------|-------------|-----------------|
B|------------------------|-------------|------------------------|-------------|-----------------|
G|-2----------------------|-5------5----|-5----------------------|-2------2----|-2---------------|
D|-2----------------------|-5------5----|-5----------------------|-2------2----|-2---------------|
A|-0-----------------5----|-3------3----|-3-----------------5----|-0------0----|-0-----5----4----|
E|------0---0---3---------|-------------|------0---0---3---------|-------------|-------3----2----|


E|--------|--------|---------------------|-0----------------------|-----------------|
B|--------|--------|-0----1--------------|-------------------1----|-------1---------|
G|--------|--------|-2---------2---------|-----------0---2--------|-0---------------|
D|-2------|-2------|-2--------------2----|------2-----------------|-2----------2----|
A|-2------|-2------|-0-------------------|------------------------|-3---------------|
E|-0------|-0------|---------------------|------------------------|-----------------|


E|-0----------------------|-----------------|-3---------3----3----|-----------------|
B|-------------------0----|-0-----3---------|---------------------|-----------------|
G|-----------0---2--------|-----------------|-----------2----0----|-0---------------|
D|------2-----------------|------------0----|------0--------------|-------2---------|
A|------------------------|-----------------|---------------------|------------2----|
E|------------------------|-3---------------|---------------------|-0---------------|


E|-------------------|---------------------|-0----------------------|-----------------|
B|-0-----1-3-----3---|-0----1--------------|-------------------1----|-------1---------|
G|-0-----2-4-----4---|-2---------2---------|-----------0---2--------|-0---------------|
D|-------------------|-2--------------2----|------2-----------------|-2----------2----|
A|-------------------|-0-------------------|------------------------|-3---------------|
E|-------------------|---------------------|------------------------|-----------------|


E|-0----------------------|-----------------|-3--------------------------|-0-------------------|
B|-------------------0----|-0-----3---------|----------------------------|-0-------------------|
G|-----------0---2--------|-----------------|-----------0---2---0---0----|-0-------------------|
D|------2-----------------|------------0----|------0---------------------|-2---------2---------|
A|------------------------|-----------------|----------------------------|----------------2----|
E|------------------------|-3---------------|----------------------------|------0--------------|


E|-------------------|---------------------|-0----------------------|-----------------|
B|-0-----1-3-----3---|-0----1--------------|-------------------1----|-------1---------|
G|-0-----2-4-----4---|-2---------2---------|-----------0---2--------|-0---------------|
D|-------------------|-2--------------2----|------2-----------------|-2----------2----|
A|-------------------|-0-------------------|------------------------|-3---------------|
E|-------------------|---------------------|------------------------|-----------------|


E|-0----------------------|-----------------|-3---------3----3----|-----------------|
B|-------------------0----|-0-----3---------|---------------------|-----------------|
G|-----------0---2--------|-----------------|-----------2----0----|-0---------------|
D|------2-----------------|------------0----|------0--------------|-------2---------|
A|------------------------|-----------------|---------------------|------------2----|
E|------------------------|-3---------------|---------------------|-0---------------|


E|-------------------|---------------------|-0----------------------|-----------------|
B|-0-----1-3-----3---|-0----1--------------|-------------------1----|-------1---------|
G|-0-----2-4-----4---|-2---------2---------|-----------0---2--------|-0---------------|
D|-------------------|-2--------------2----|------2-----------------|-2----------2----|
A|-------------------|-0-------------------|------------------------|-3---------------|
E|-------------------|---------------------|------------------------|-----------------|


E|-0----------------------|-----------------|-3--------------------------|-0-------------------|
B|-------------------0----|-0-----3---------|----------------------------|-0-------------------|
G|-----------0---2--------|-----------------|-----------0---2---0---0----|-0-------------------|
D|------2-----------------|------------0----|------0---------------------|-2---------2---------|
A|------------------------|-----------------|----------------------------|----------------2----|
E|------------------------|-3---------------|----------------------------|------0--------------|


E|-------------------|---------------------|-0----------------------|-----------------|
B|-0-----1-3-----3---|-0----1--------------|-------------------1----|-------1---------|
G|-0-----2-4-----4---|-2---------2---------|-----------0---2--------|-0---------------|
D|-------------------|-2--------------2----|------2-----------------|-2----------2----|
A|-------------------|-0-------------------|------------------------|-3---------------|
E|-------------------|---------------------|------------------------|-----------------|


E|-0----------------------|-----------------|-3---------3----3----|-----------------|
B|-------------------0----|-0-----3---------|---------------------|-----------------|
G|-----------0---2--------|-----------------|-----------2----0----|-0---------------|
D|------2-----------------|------------0----|------0--------------|-------2---------|
A|------------------------|-----------------|---------------------|------------2----|
E|------------------------|-3---------------|---------------------|-0---------------|


E|-------------------|---------------------|-0----------------------|-----------------|
B|-0-----1-3-----3---|-0----1--------------|-------------------1----|-------1---------|
G|-0-----2-4-----4---|-2---------2---------|-----------0---2--------|-0---------------|
D|-------------------|-2--------------2----|------2-----------------|-2----------2----|
A|-------------------|-0-------------------|------------------------|-3---------------|
E|-------------------|---------------------|------------------------|-----------------|


E|-0----------------------|-----------------|-3-------------------|-----------------|
B|-------------------0----|-0-----3---------|-----------3---------|-----------------|
G|-----------0---2--------|-----------------|----------------2----|-----------------|
D|------2-----------------|------------0----|------0--------------|-12--------------|
A|------------------------|-----------------|---------------------|-------2----2----|
E|------------------------|-3---------------|---------------------|-------0----0----|


E|---------------------|-------------|------------------------|-------------|------------------------|
B|---------------------|-------------|------------------------|-------------|------------------------|
G|---------------------|-2------2----|-2----------------------|-5------5----|-5----------------------|
D|---------------------|-2------2----|-2----------------------|-5------5----|-5----------------------|
A|-2----2----2----2----|-0------0----|-0-----------------5----|-3------3----|-3-----------------5----|
E|-0----0----0----0----|-------------|------0---0---3---------|-------------|------0---0---3---------|


E|-------------|---------------------------|-------------|------------------------|
B|-------------|---------------------------|-------------|------------------------|
G|-2------2----|-2----7---0---7----0---0---|-9------9----|-9------------5----4----|
D|-2------2----|-2----7---0---7----0---0---|-9------9----|-9------------5----4----|
A|-0------0----|-0----5---0---5----0---0---|-7------7----|-7------------3----2----|
E|-------------|---------------------------|-------------|------0---0-------------|


E|-------------|------------------------|-------------|------------------------|-------------|
B|-------------|------------------------|-------------|------------------------|-------------|
G|-2------2----|-2----------------------|-5------5----|-5----------------------|-2------2----|
D|-2------2----|-2----------------------|-5------5----|-5----------------------|-2------2----|
A|-0------0----|-0-----------------5----|-3------3----|-3-----------------5----|-0------0----|
E|-------------|------0---0---3---------|-------------|------0---0---3---------|-------------|


E|---------------------|---------------------|---------------------|--------|------------------------|
B|---------------------|-15------------------|-15------------------|--------|------------------------|
G|-2-------------------|------14----12-------|------14----12-------|-14-----|-2----------------------|
D|-2-------------------|----------------14---|----------------14---|--------|-2----------------------|
A|-0---------5----4----|---------------------|---------------------|--------|-0-----------------5----|
E|------0----3----2----|---------------------|---------------------|--------|------0---0---3---------|


E|-------------|------------------------|-------------|-------------|-------------|
B|-------------|------------------------|-------------|-------------|-------------|
G|-5------5----|-5----------------------|-2------2----|-2-----------|-------------|
D|-5------5----|-5----------------------|-2------2----|-2-----4-----|-6------6----|
A|-3------3----|-3-----------------5----|-0------0----|-0-----------|-------------|
E|-------------|------0---0---3---------|-------------|-------------|-------------|


E|------------------------|---------------------|---------------------|--------|--------|
B|------------------------|---------------------|---------------------|--------|--------|
G|------------------------|---------------------|---------------------|--------|--------|
D|-6----7---7---7----7----|-7----2----2----2----|-2-------------------|--------|--------|
A|------------------------|---------------------|------3--------------|--------|--------|
E|------------------------|---------------------|-3---------5----8----|-8------|-8------|


E|---------------------|---------------------|-----------------------|---------------------------|
B|---------------------|---------------------|-----------------------|---------------------------|
G|---------------------|---------------------|-7---9-------9---9-----|-7---9-------9---12--11----|
D|-7----2----2----2----|-2-------------------|-7---9-------9---9-----|-7---9-------9---12--11----|
A|---------------------|------3--------------|-5---7-------7---7-----|-5---7-------7---10--9-----|
E|---------------------|-----------1----3----|-----------------------|---------------------------|


E|-----------------------------|---------------------------------------|-----------------------|
B|-----------------------------|---------------------------------------|-----------------------|
G|-----7-------7---7-----------|-----------------------------------4---|-7---9-------9---9-----|
D|-----7-------7---7-----9--9--|-9---7--7--7---5--5--5---4--4--4-------|-7---9-------9---9-----|
A|-----5-------5---5-----------|---------------------------------------|-5---7-------7---7-----|
E|-----------------------------|---------------------------------------|-----------------------|


E|---------------------------|-----------------------------|---------------------------------------|
B|---------------------------|-----------------------------|---------------------------------------|
G|-7---9-------9---12--11----|-----7-------7---7-----------|---------------------------------------|
D|-7---9-------9---12--11----|-----7-------7---7-----9--9--|-9---7--7--7---5--5--5---4--4--4---5---|
A|-5---7-------7---10--9-----|-----5-------5---5-----------|---------------------------------------|
E|---------------------------|-----------------------------|---------------------------------------|


E|-----------------------|---------------------------|-----------------------------|
B|-----------------------|---------------------------|-----------------------------|
G|-7---9-------9---9-----|-7---9-------9---12--11----|-----7-------7---7-----------|
D|-7---9-------9---9-----|-7---9-------9---12--11----|-----7-------7---7-----9--9--|
A|-5---7-------7---7-----|-5---7-------7---10--9-----|-----5-------5---5-----------|
E|-----------------------|---------------------------|-----------------------------|


E|---------------------------------------|-----------------------|---------------------------|
B|---------------------------------------|-----------------------|---------------------------|
G|-----------------------------------4---|-7---9-------9---9-----|-7---9-------9---12--11----|
D|-9---7--7--7---5--5--5---4--4--4-------|-7---9-------9---9-----|-7---9-------9---12--11----|
A|---------------------------------------|-5---7-------7---7-----|-5---7-------7---10--9-----|
E|---------------------------------------|-----------------------|---------------------------|


E|-----------------------------|---------------------------------------|-----------------------|
B|-----------------------------|---------------------------------------|-----------------------|
G|-----7-------7---7-----------|---------------------------------------|-----------------------|
D|-----7-------7---7-----9--9--|-9---7--7--7---5--5--5---4--4--4---5---|-----------------------|
A|-----5-------5---5-----------|---------------------------------------|-5---7-------7---7-----|
E|-----------------------------|---------------------------------------|-----------------------|


E|---------------------------|-----------------------------|---------------------------------------|
B|---------------------------|-----------------------------|---------------------------------------|
G|---------------------------|-----------------------------|-----------------------------------4---|
D|---------------------------|-----------------------9--9--|-9---7--7--7---5--5--5---4--4--4-------|
A|-5---7-------7---10--9-----|-----5-------5---5-----------|---------------------------------------|
E|---------------------------|-----------------------------|---------------------------------------|


E|-----------------------|---------------------------|-----------------------------|
B|-----------------------|---------------------------|-----------------------------|
G|-----------------------|---------------------------|-----------------------7--7--|
D|-----------------------|---------------------------|-----------------------------|
A|-5---7-------7---7-----|-5---7-------7---10--9-----|-----5-------5---5-----------|
E|-----------------------|---------------------------|-----------------------------|


E|---------------------------------------|-----------------------|---------------------------|
B|---------------------------------------|-----------------------|---------------------------|
G|-7---6--6--6---4--4--4---2--2--2---4---|-7---9-------9---9-----|-7---9-------9---12--11----|
D|---------------------------------------|-7---9-------9---9-----|-7---9-------9---12--11----|
A|---------------------------------------|-5---7-------7---7-----|-5---7-------7---10--9-----|
E|---------------------------------------|-----------------------|---------------------------|


E|-----------------------------|---------------------------------------|-----------------------|
B|-----------------------------|---------------------------------------|-----------------------|
G|-----7-------7---7-----------|-----------------------------------4---|-7---9-------9---9-----|
D|-----7-------7---7-----9--9--|-9---7--7--7---5--5--5---4--4--4-------|-7---9-------9---9-----|
A|-----5-------5---5-----------|---------------------------------------|-5---7-------7---7-----|
E|-----------------------------|---------------------------------------|-----------------------|


E|---------------------------|-----------------------------|---------------------------------------|
B|---------------------------|-----------------------------|---------------------------------------|
G|-7---9-------9---12--11----|-----7-------7---7-----------|---------------------------------------|
D|-7---9-------9---12--11----|-----7-------7---7-----9--9--|-9---7--7--7---5--5--5---4--4--4---5---|
A|-5---7-------7---10--9-----|-----5-------5---5-----------|---------------------------------------|
E|---------------------------|-----------------------------|---------------------------------------|


E|---------------------------|---------------------------|-----------------------------|
B|---------------------------|---------------------------|-----------------7-----------|
G|-----------------9-----9---|-----------------12--11----|-----------------7-----------|
D|-----------------9-----9---|-----------------12--11----|-----------------7-----9--9--|
A|-----------------7-----7---|-----------------10--9-----|-----------------5-----------|
E|-0---0---0---0-------------|-0---0---0---0-------------|-0---0---0---0---------------|


E|---------------------------------------|---------------------------|---------------------------|
B|---------------------------------------|---------------------------|---------------------------|
G|-----------------------------------4---|-----------------9-----9---|-----------------12--11----|
D|-9---7--7--7---5--5--5---4--4--4-------|-----------------9-----9---|-----------------12--11----|
A|---------------------------------------|-----------------7-----7---|-----------------10--9-----|
E|---------------------------------------|-0---0---0---0-------------|-0---0---0---0-------------|


E|-----------------------------|---------------------------------------|-----------------------|
B|-----------------7-----------|---------------------------------------|-----------------------|
G|-----------------7-----------|-----------------------------------4---|-----------------------|
D|-----------------7-----9--9--|-9---7--7--7---5--5--5---4--4--4---5---|-------3-4---4----5----|
A|-----------------5-----------|---------------------------------------|-5---------------------|
E|-0---0---0---0---------------|---------------------------------------|-----------------------|


E|---------------------------|-----------------------|---------------------------|
B|---------------------------|-----------------------|---------------------------|
G|---------------------------|-----------------------|---------------------------|
D|-5---4-----2---------------|-------3-4---4----5----|-5---4-----2---------------|
A|---------------5---4-------|-4---------------------|---------------5---4-------|
E|-----------------------5---|-----------------------|-----------------------5---|


E|-----------------------|---------------------------|-----------------------|---------------------------|
B|-----------------------|---------------------------|-----------------------|---------------------------|
G|-----------------------|---------------------------|-----------------------|---------------------------|
D|-------3-4---4----5----|-5---4-----2---------------|-------3-4---4----5----|-5---7-----5---4---2---4---|
A|-2---------------------|---------------5---4-------|-4---------------------|---------------------------|
E|-----------------------|-----------------------5---|-----------------------|---------------------------|


E|-----------------------|---------------------------|-----------------------|---------------------------|
B|-----------------------|---------------------------|-----------------------|---------------------------|
G|-----------------------|---------------------------|-----------------------|---------------------------|
D|-------3-4---4----5----|-5---4-----2---------------|-------3-4---4----5----|-5---4-----2---------------|
A|-5---------------------|---------------5---4-------|-4---------------------|---------------5---4-------|
E|-----------------------|-----------------------5---|-----------------------|-----------------------5---|


E|-----------------------|---------------------------|-----------------------|---------------------------|
B|-----------------------|---------------------------|-----------------------|---------------------------|
G|-----------------------|---------------------------|-----------------------|---------------------------|
D|-------3-4---4----5----|-5---4-----2---------------|-------3-4---4----5----|-5---7-----5---4---2---4---|
A|-2---------------------|---------------5---4-------|-4---------------------|---------------------------|
E|-----------------------|-----------------------5---|-----------------------|---------------------------|


E|-----------------------|---------------------------|-----------------------|---------------------------|
B|-----------------------|---------------------------|-----------------------|---------------------------|
G|-----------------------|---------------------------|-----------------------|---------------------------|
D|-------3-4---4----5----|-5---4-----2---------------|-------3-4---4----5----|-5---4-----2---------------|
A|-5---------------------|---------------5---4-------|-4---------------------|---------------5---4-------|
E|-----------------------|-----------------------5---|-----------------------|-----------------------5---|


E|-----------------------|---------------------------|-----------------------|---------------------------|
B|-----------------------|---------------------------|-----------------------|---------------------------|
G|-----------------------|---------------------------|-----------------------|---------------------------|
D|-------3-4---4----5----|-5---4-----2---------------|-------3-4---4----5----|-5---7-----5---4---2---4---|
A|-2---------------------|---------------5---4-------|-4---------------------|---------------------------|
E|-----------------------|-----------------------5---|-----------------------|---------------------------|


E|-----------------------|---------------------------|-----------------------|---------------------------|
B|-----------------------|---------------------------|-----------------------|---------------------------|
G|-----------------------|---------------------------|-----------------------|---------------------------|
D|-------3-4---4----5----|-5---4-----2---------------|-------3-4---4----5----|-5---4-----2---------------|
A|-5---------------------|---------------5---4-------|-4---------------------|---------------5---4-------|
E|-----------------------|-----------------------5---|-----------------------|-----------------------5---|


E|-----------------------|---------------------------|-----------------------|---------------------------|
B|-----------------------|---------------------------|-----------------------|---------------------------|
G|-----------------------|---------------------------|-----------------------|---------------------------|
D|-------3-4---4----5----|-5---4-----2---------------|-------3-4---4----5----|-5---7-----5---4---2---4---|
A|-2---------------------|---------------5---4-------|-4---------------------|---------------------------|
E|-----------------------|-----------------------5---|-----------------------|---------------------------|


E|-----------------------|---------------------------|-----------------------|---------------------------|
B|-----------------------|---------------------------|-----------------------|---------------------------|
G|-----------------------|---------------------------|-----------------------|---------------------------|
D|-------3-4---4----5----|-5---4-----2---------------|-------3-4---4----5----|-5---4-----2---------------|
A|-5---------------------|---------------5---4-------|-4---------------------|---------------5---4-------|
E|-----------------------|-----------------------5---|-----------------------|-----------------------5---|


E|-----------------------|---------------------------|-----------------------|---------------------------|
B|-----------------------|---------------------------|-----------------------|---------------------------|
G|-----------------------|---------------------------|-----------------------|---------------------------|
D|-------3-4---4----5----|-5---4-----2---------------|-------3-4---4----5----|-5---7-----5---4---2---4---|
A|-2---------------------|---------------5---4-------|-4---------------------|---------------------------|
E|-----------------------|-----------------------5---|-----------------------|---------------------------|


E|-----------------------|---------------------------|-----------------------|---------------------------|
B|-----------------------|---------------------------|-----------------------|---------------------------|
G|-----------------------|---------------------------|-----------------------|---------------------------|
D|-------3-4---4----5----|-5---4-----2---------------|-------3-4---4----5----|-5---4-----2---------------|
A|-5---------------------|---------------5---4-------|-4---------------------|---------------5---4-------|
E|-----------------------|-----------------------5---|-----------------------|-----------------------5---|


E|-----------------------|---------------------------|-----------------------|---------------------------|
B|-----------------------|---------------------------|-----------------------|---------------------------|
G|-----------------------|---------------------------|-----------------------|---------------------------|
D|-------3-4---4----5----|-5---4-----2---------------|-------3-4---4----5----|-5---7-----5---4---2---4---|
A|-2---------------------|---------------5---4-------|-4---------------------|---------------------------|
E|-----------------------|-----------------------5---|-----------------------|---------------------------|


E|--------|----------------|--------|------------------------------|--------|-------------|
B|--------|----------------|--------|------------------------------|--------|-------------|
G|-4------|-4--------------|-2------|-2----------------------------|--------|-------------|
D|-4------|-4--------------|-2------|-2---4---5---4---5---4--------|-5------|-5-----------|
A|-2------|-2------3---5---|-0------|-0----------------------------|-5------|-5-----------|
E|--------|----------------|--------|-------------------------2----|-3------|-3------3----|


E|--------|--------|-------------------|-------------|--------------------------|-----------------|
B|--------|--------|-------------------|-------------|--------------------------|-----------------|
G|-2------|-2------|-------------------|-------------|--------------------------|-----------------|
D|-2------|-2------|-------3-4---4-----|-5-----4-----|-4----2-------------------|-----------------|
A|-0------|-0------|-5-----------------|-------------|-----------5----4---------|-----------------|
E|--------|--------|-------------------|-------------|---------------------5----|-5----7----5-----|


E|-------------------------------------------------|-------------------------------------------------|
B|-------------------------------------------------|-------------------------------------------------|
G|-------------------------------------------------|-------------------------------------------------|
D|-9--9--9--9--9--9--9--9--9--9--9--9--9--9--9--9--|-9--9--9--9--9--9--9--9--9--9--9--9--9--9--9--9--|
A|-9--9--9--9--9--9--9--9--9--9--9--9--9--9--9--9--|-9--9--9--9--9--9--9--9--9--9--9--9--9--9--9--9--|
E|-7--7--7--7--7--7--7--7--7--7--7--7--7--7--7--7--|-7--7--7--7--7--7--7--7--7--7--7--7--7--7--7--7--|


E|-------------------------------------------------|-------------------------------------------------|
B|-------------------------------------------------|-------------------------------------------------|
G|-------------------------------------------------|-------------------------------------------------|
D|-9--9--9--9--9--9--9--9--9--9--9--9--9--9--9--9--|-9--9--9--9--9--9--9--9--9--9--9--9--9--9--9--9--|
A|-9--9--9--9--9--9--9--9--9--9--9--9--9--9--9--9--|-9--9--9--9--9--9--9--9--9--9--9--9--9--9--9--9--|
E|-7--7--7--7--7--7--7--7--7--7--7--7--7--7--7--7--|-7--7--7--7--7--7--7--7--7--7--7--7--7--7--7--7--|


E|-------------------------------------------------|-------------------------------------------------|
B|-------------------------------------------------|-------------------------------------------------|
G|-------------------------------------------------|-------------------------------------------------|
D|-9--9--9--9--9--9--9--9--9--9--9--9--9--9--9--9--|-9--9--9--9--9--9--9--9--9--9--9--9--9--9--9--9--|
A|-9--9--9--9--9--9--9--9--9--9--9--9--9--9--9--9--|-9--9--9--9--9--9--9--9--9--9--9--9--9--9--9--9--|
E|-7--7--7--7--7--7--7--7--7--7--7--7--7--7--7--7--|-7--7--7--7--7--7--7--7--7--7--7--7--7--7--7--7--|


E|-------------------------------------------------|-------------------------------------------------|
B|-------------------------------------------------|-------------------------------------------------|
G|-------------------------------------------------|-------------------------------------------------|
D|-9--9--9--9--9--9--9--9--9--9--9--9--9--9--9--9--|-9--9--9--9--9--9--9--9--9--9--9--9--9--9--9--9--|
A|-9--9--9--9--9--9--9--9--9--9--9--9--9--9--9--9--|-9--9--9--9--9--9--9--9--9--9--9--9--9--9--9--9--|
E|-7--7--7--7--7--7--7--7--7--7--7--7--7--7--7--7--|-7--7--7--7--7--7--7--7--7--7--7--7--7--7--7--7--|


E|-------------------------------------------------|-------------------------------------------------|
B|-------------------------------------------------|-------------------------------------------------|
G|-------------------------------------------------|-------------------------------------------------|
D|-9--9--9--9--9--9--9--9--9--9--9--9--9--9--9--9--|-9--9--9--9--9--9--9--9--9--9--9--9--9--9--9--9--|
A|-9--9--9--9--9--9--9--9--9--9--9--9--9--9--9--9--|-9--9--9--9--9--9--9--9--9--9--9--9--9--9--9--9--|
E|-7--7--7--7--7--7--7--7--7--7--7--7--7--7--7--7--|-7--7--7--7--7--7--7--7--7--7--7--7--7--7--7--7--|


E|--------|--------|---------------------|---------------------|--------|--------|
B|--------|--------|---------------------|---------------------|--------|--------|
G|--------|--------|---------------------|---------------------|--------|--------|
D|-9------|-9------|-9---------9---------|-9----11---9----12---|-9------|-9------|
A|-9------|-9------|------9---------9----|---------------------|-9------|-9------|
E|-7------|-7------|---------------------|---------------------|-7------|-7------|


E|-------------------------------------------------|-------------------------------------------------|
B|-------------------------------------------------|-------------------------------------------------|
G|-4--4--4--4--4--4--11-11-11-11-11-11-11-11-11-11-|-11-11-11-11-11-11-11-11-11-11-11-11-11-11-11-11-|
D|-------------------------------------------------|-------------------------------------------------|
A|-2--2--2--2--2--2--9--9--9--9--9--9--9--9--9--9--|-9--9--9--9--9--9--9--9--9--9--9--9--9--9--9--9--|
E|-------------------------------------------------|-------------------------------------------------|


E|-------------------------------------------------|-------------------------------------------------|
B|-------------------------------------------------|-------------------------------------------------|
G|-9--9--9--9--11-11-11-11-11-11-11-11-16-16-16-16-|-16-16-16-16-16-16-16-16-16-16-16-16-16-16-16-16-|
D|-------------------------------------------------|-------------------------------------------------|
A|-7--7--7--7--9--9--9--9--9--9--9--9--14-14-14-14-|-14-14-14-14-14-14-14-14-14-14-14-14-14-14-14-14-|
E|-------------------------------------------------|-------------------------------------------------|


E|-------------------------------------------------|---------------------|---------------------|
B|-------------------------------------------------|---------------------|---------------------|
G|-16-16-16-16-16-16-16-16-16-16-16-16-16-16-16-16-|---------------------|---------------------|
D|-------------------------------------------------|---------------------|---------------------|
A|-14-14-14-14-14-14-14-14-14-14-14-14-14-14-14-14-|-2----2----9----9----|-14---14---17---17---|
E|-------------------------------------------------|---------------------|---------------------|


E|--------|--------------------|--------------------|--------------------|------------------------|
B|--------|--------------------|--------------------|--------------------|------------------------|
G|--------|--------------------|--------------------|--------------------|------------------------|
D|--------|--------------------|----------------14--|--------------------|------14----------------|
A|-16-----|-16----14---16--17--|-16----14---16------|-16----14---16--17--|-16-------17--16---17---|
E|--------|--------------------|--------------------|--------------------|------------------------|


E|--------|------------------------------|
B|--------|------------------------------|
G|--------|------------------------------|
D|--------|------------------------------|
A|-14-----|-12--2---12--2---12--2--------|
E|--------|-12--0---12--0---12--0--------|









Track 2: Kirk
Back to top
E|---------------------|---------------------|-----------------|-----------------|
B|-4----5----7----8----|-8----7----5----7----|-5----4----4-----|-4---------------|
G|---------------------|---------------------|-----------------|-------4-----8---|
D|-1----2----4----5----|-5----4----2----4----|-2----1----1-----|-1---------------|
A|---------------------|---------------------|-----------------|-------2-----6---|
E|---------------------|---------------------|-----------------|-----------------|


E|-----------------|------------------|----------------|------0------|-0------|-0-----------|
B|-----------------|-------7-----5----|-5---4------4---|-4----0------|-0------|-0-----------|
G|-8-----3-----8---|-8----------------|----------------|------0------|-0------|-0-----------|
D|-----------------|-------4-----2----|-2---1------1---|-1----2------|-2------|-2-----------|
A|-6-----1-----6---|-6----------------|----------------|------2------|-2------|-2-----------|
E|-----------------|------------------|----------------|------0------|-0------|-0-----------|


E|--------|--------|--------|--------|--------|--------|--------|--------|--------|
B|--------|--------|--------|--------|--------|--------|--------|--------|--------|
G|--------|--------|--------|--------|--------|--------|--------|--------|--------|
D|--------|--------|--------|--------|--------|--------|--------|--------|--------|
A|--------|--------|--------|--------|--------|--------|--------|--------|--------|
E|--------|--------|--------|--------|--------|--------|--------|--------|--------|


E|--------|--------|--------|--------|--------|--------|--------|--------|--------|
B|--------|--------|--------|--------|--------|--------|--------|--------|--------|
G|--------|--------|--------|--------|--------|--------|--------|--------|--------|
D|--------|--------|--------|--------|--------|--------|--------|--------|--------|
A|--------|--------|--------|--------|--------|--------|--------|--------|--------|
E|--------|--------|--------|--------|--------|--------|--------|--------|--------|


E|--------|--------|--------|--------|--------|--------|--------|--------|--------|
B|--------|--------|--------|--------|--------|--------|--------|--------|--------|
G|--------|--------|--------|--------|--------|--------|--------|--------|--------|
D|--------|--------|--------|--------|--------|--------|--------|--------|--------|
A|--------|--------|--------|--------|--------|--------|--------|--------|--------|
E|--------|--------|--------|--------|--------|--------|--------|--------|--------|


E|--------|--------|---------------------|------------------------|------------------------|
B|--------|--------|----------------7----|----------------7---8---|-10---10---10---8---10--|
G|--------|--------|-----------7---------|------------------------|------------------------|
D|--------|--------|------9--------------|-9----9----9------------|------------------------|
A|--------|--------|---------------------|------------------------|------------------------|
E|--------|--------|---------------------|------------------------|------------------------|


E|---------------------------|--------|------------------------|---------------------|
B|-12---12--10--10---8----8--|-10-----|------12--10--8----7----|-8----7---------7----|
G|---------------------------|--------|------------------------|-----------9---------|
D|---------------------------|--------|------------------------|---------------------|
A|---------------------------|--------|------------------------|---------------------|
E|---------------------------|--------|------------------------|---------------------|


E|---------------------------------|---------------------------|--------------------|
B|-8---8---8---7---7---7-----------|-7----7--------------------|--------------------|
G|-------------------------9---9---|----------9---9---9---7----|--------------------|
D|---------------------------------|---------------------------|-7----7---7---9-----|
A|---------------------------------|---------------------------|--------------------|
E|---------------------------------|---------------------------|--------------------|


E|-----------------|--------|---------------------|--------|-----------------|--------|
B|-----------------|--------|----------------8----|-7------|-7-----7----8----|-10-----|
G|------------7----|-6------|-6----7----6---------|--------|-----------------|--------|
D|-9-----9---------|--------|---------------------|--------|-----------------|--------|
A|-----------------|--------|---------------------|--------|-----------------|--------|
E|-----------------|--------|---------------------|--------|-----------------|--------|


E|----------------14--|-19--14----------15--14----------|---------------------------|
B|-10---------15------|---------15--------------15------|-17--15--14----------------|
G|--------------------|-------------16--------------14--|-------------16--14---14---|
D|--------------------|---------------------------------|---------------------------|
A|--------------------|---------------------------------|---------------------------|
E|--------------------|---------------------------------|---------------------------|


E|--------------------|--------------------|---------------------|----------------------------|
B|--------------------|--------------------|-----------14---15---|-14--15--14-------14---15---|
G|-14----14---14--16--|--------------------|-14---16-------------|-------------16-------------|
D|--------------------|-14----14---14--16--|---------------------|----------------------------|
A|--------------------|--------------------|---------------------|----------------------------|
E|--------------------|--------------------|---------------------|----------------------------|


E|------19---17---15--17-15-|-15--17-15-15--17-15-14---15---|-14---14-------------|
B|-14-----------------------|-------------------------------|-----------15--------|
G|--------------------------|-------------------------------|----------------16---|
D|--------------------------|-------------------------------|---------------------|
A|--------------------------|-------------------------------|---------------------|
E|--------------------------|-------------------------------|---------------------|


E|-----------14------14--15--|-14---14-------------|-----------14---14---|-14---14--------17---|
B|---------------------------|-----------15--------|---------------------|-----------15--------|
G|-16---16-------------------|----------------14---|-14---14-------------|---------------------|
D|---------------------------|---------------------|---------------------|---------------------|
A|---------------------------|---------------------|---------------------|---------------------|
E|---------------------------|---------------------|---------------------|---------------------|


E|-17---17---15---15---|-14-15-14-15-14-15-14-15-14-15-14-15-14-15-14-15-|-14-----|
B|---------------------|-------------------------------------------------|--------|
G|---------------------|-------------------------------------------------|--------|
D|---------------------|-------------------------------------------------|--------|
A|---------------------|-------------------------------------------------|--------|
E|---------------------|-------------------------------------------------|--------|


E|---------------------|---------------------|----------------12---|-13---15---13--15--13-------|
B|---------------------|---------------------|-12---13---15--------|-----------------------15---|
G|---------------------|-----------12---14---|---------------------|----------------------------|
D|----------------12---|-14---15-------------|---------------------|----------------------------|
A|-12---14---15--------|---------------------|---------------------|----------------------------|
E|---------------------|---------------------|---------------------|----------------------------|


E|-17-----|--------|--------|--------|--------|--------|--------|--------|--------|
B|-17-----|--------|--------|--------|--------|--------|--------|--------|--------|
G|--------|--------|--------|--------|--------|--------|--------|--------|--------|
D|--------|--------|--------|--------|--------|--------|--------|--------|--------|
A|--------|--------|--------|--------|--------|--------|--------|--------|--------|
E|--------|--------|--------|--------|--------|--------|--------|--------|--------|


E|--------|--------|--------|--------|--------|--------|--------|--------|---------------------|
B|--------|--------|--------|--------|--------|--------|--------|--------|----------------5----|
G|--------|--------|--------|--------|--------|--------|--------|-2------|-2----2----5---------|
D|--------|--------|--------|--------|--------|--------|--------|--------|---------------------|
A|--------|--------|--------|--------|--------|--------|--------|--------|---------------------|
E|--------|--------|--------|--------|--------|--------|--------|--------|---------------------|


E|-3------|-3----3--------------|-10-----|-10-----|-7------|-7------|--------|---------------------|
B|--------|----------------12---|--------|--------|-8------|-8------|--------|----------------5----|
G|--------|-----------12--------|--------|--------|-9------|-9------|-2------|-2----2----5---------|
D|--------|---------------------|--------|--------|--------|--------|--------|---------------------|
A|--------|---------------------|--------|--------|--------|--------|--------|---------------------|
E|--------|---------------------|--------|--------|--------|--------|--------|---------------------|


E|-3------|-3----3--------------|-10-----|-10---10-------------|--------|--------|
B|--------|----------------12---|--------|----------------12---|--------|--------|
G|--------|-----------12--------|--------|-----------12--------|-12-----|-12-----|
D|--------|---------------------|--------|---------------------|--------|--------|
A|--------|---------------------|--------|---------------------|--------|--------|
E|--------|---------------------|--------|---------------------|--------|--------|


E|--------|---------------------|-3------|-3----3--------------|-10-----|-10-----|
B|--------|----------------5----|--------|----------------12---|--------|--------|
G|-2------|-2----2----5---------|--------|-----------12--------|--------|--------|
D|--------|---------------------|--------|---------------------|--------|--------|
A|--------|---------------------|--------|---------------------|--------|--------|
E|--------|---------------------|--------|---------------------|--------|--------|


E|-7------|-7------|--------|---------------------|-3------|-3----3--------------|
B|-8------|-8------|--------|----------------5----|--------|----------------12---|
G|-9------|-9------|-2------|-2----2----5---------|--------|-----------12--------|
D|--------|--------|--------|---------------------|--------|---------------------|
A|--------|--------|--------|---------------------|--------|---------------------|
E|--------|--------|--------|---------------------|--------|---------------------|


E|-10-----|-10-----|-7------|-7------|--------|---------------------|-3------|-3----3--------------|
B|--------|--------|-8------|-8------|--------|----------------5----|--------|----------------12---|
G|--------|--------|-9------|-9------|-2------|-2----2----5---------|--------|-----------12--------|
D|--------|--------|--------|--------|--------|---------------------|--------|---------------------|
A|--------|--------|--------|--------|--------|---------------------|--------|---------------------|
E|--------|--------|--------|--------|--------|---------------------|--------|---------------------|


E|-10-----|-10-----|-7------|-7------|--------|---------------------|-3------|-3----3--------------|
B|--------|--------|-8------|-8------|--------|----------------5----|--------|----------------12---|
G|--------|--------|-9------|-9------|-2------|-2----2----5---------|--------|-----------12--------|
D|--------|--------|--------|--------|--------|---------------------|--------|---------------------|
A|--------|--------|--------|--------|--------|---------------------|--------|---------------------|
E|--------|--------|--------|--------|--------|---------------------|--------|---------------------|


E|-10-----|-10-----|---------------------|---------------------|---------------------|
B|--------|--------|---------------------|---------------------|---------------------|
G|--------|--------|---------------------|---------------------|-2----2----2----2----|
D|--------|--------|---------------------|---------------------|-2----2----2----2----|
A|--------|--------|-2----2----2----2----|-2----2----2----2----|-0----0----0----0----|
E|--------|--------|-0----0----0----0----|-0----0----0----0----|---------------------|


E|------------------------|---------------------|------------------------|---------------------|
B|------------------------|---------------------|------------------------|---------------------|
G|-2----------------------|-5----5----5----5----|-5----------------------|-2----2----2----2----|
D|-2----------------------|-5----5----5----5----|-5----------------------|-2----2----2----2----|
A|-0-----------------5----|-3----3----3----3----|-3-----------------5----|-0----0----0----0----|
E|------0---0---3---------|---------------------|------0---0---3---------|---------------------|


E|---------------------------|---------------------|------------------------|---------------------|
B|---------------------------|---------------------|------------------------|---------------------|
G|-2----7---0---7----0---0---|---------------------|--------------5----4----|-2----2----2----2----|
D|-2----7---0---7----0---0---|-2----2----2----2----|-2------------5----4----|-2----2----2----2----|
A|-0----5---0---5----0---0---|-2----2----2----2----|-2------------3----2----|-0----0----0----0----|
E|---------------------------|-0--------------0----|-0----0---0-------------|---------------------|


E|------------------------|---------------------|------------------------|---------------------|
B|------------------------|---------------------|------------------------|---------------------|
G|-2----------------------|-5----5----5----5----|-5----------------------|-2----2----2----2----|
D|-2----------------------|-5----5----5----5----|-5----------------------|-2----2----2----2----|
A|-0-----------------5----|-3----3----3----3----|-3-----------------5----|-0----0----0----0----|
E|------0---0---3---------|---------------------|------0---0---3---------|---------------------|


E|---------------------|--------|-------------|---------------------|------------------------|
B|---------------------|--------|-------------|---------------------|------------------------|
G|-2----2--------------|--------|-------------|-2----2----2----2----|-2----------------------|
D|-2----2--------------|-2------|-2-----------|-2----2----2----2----|-2----------------------|
A|-0----0----5----4----|-2------|-2-----------|-0----0----0----0----|-0-----------------5----|
E|------0----3----2----|-0------|-0------0----|---------------------|------0---0---3---------|


E|---------------------|------------------------|---------------------|---------------------------|
B|---------------------|------------------------|---------------------|---------------------------|
G|-5----5----5----5----|-5----------------------|-2----2----2----2----|-2----7---0---7----0---0---|
D|-5----5----5----5----|-5----------------------|-2----2----2----2----|-2----7---0---7----0---0---|
A|-3----3----3----3----|-3-----------------5----|-0----0----0----0----|-0----5---0---5----0---0---|
E|---------------------|------0---0---3---------|---------------------|---------------------------|


E|---------------------|------------------------|---------------------|------------------------|
B|---------------------|------------------------|---------------------|------------------------|
G|---------------------|--------------5----4----|-2----2----2----2----|-2----------------------|
D|-2----2----2----2----|-2------------5----4----|-2----2----2----2----|-2----------------------|
A|-2----2----2----2----|-2------------3----2----|-0----0----0----0----|-0-----------------5----|
E|-0--------------0----|-0----0---0-------------|---------------------|------0---0---3---------|


E|---------------------|------------------------|---------------------|---------------------|
B|---------------------|------------------------|---------------------|---------------------|
G|-5----5----5----5----|-5----------------------|-2----2----2----2----|-2----2--------------|
D|-5----5----5----5----|-5----------------------|-2----2----2----2----|-2----2--------------|
A|-3----3----3----3----|-3-----------------5----|-0----0----0----0----|-0----0----5----4----|
E|---------------------|------0---0---3---------|---------------------|------0----3----2----|


E|--------|--------|----------------|-----------------|-------------|---------------------------|
B|--------|--------|-8----10-----10-|-10----10---12---|-13-----13---|-15---15--13--13--12--12---|
G|--------|--------|----------------|-----------------|-------------|---------------------------|
D|-2------|-2------|----------------|-----------------|-------------|---------------------------|
A|-2------|-2------|----------------|-----------------|-------------|---------------------------|
E|-0------|-0------|----------------|-----------------|-------------|---------------------------|


E|-------------|----------------------------|-------------------------------|---------------------------|
B|-------------|----------------------------|-------------------------------|---------------------------|
G|-12----12----|-12--12--11---11---12---12--|-11---11-9--9--9--9----7---9---|-11---9---11--12---11--12--|
D|-------------|----------------------------|-------------------------------|---------------------------|
A|-------------|----------------------------|-------------------------------|---------------------------|
E|-------------|----------------------------|-------------------------------|---------------------------|


E|--------|---------------------------|--------|-----------------|-----------17--------|
B|--------|--------------12-------12--|-13-----|-----------------|------17--------17---|
G|-14-----|-14---12--14-------14------|--------|-19----17---19---|-19------------------|
D|--------|---------------------------|--------|-----------------|---------------------|
A|--------|---------------------------|--------|-----------------|---------------------|
E|--------|---------------------------|--------|-----------------|---------------------|


E|--------------------|------------------------|-----------------|--------|---------------------|
B|-20----20--17-------|------------------------|-19--------17----|--------|----------------5----|
G|---------------19---|-19----17--19--17-------|-19--------17----|-2------|-2----2----5---------|
D|--------------------|-------------------19---|------19---------|--------|---------------------|
A|--------------------|------------------------|-----------------|--------|---------------------|
E|--------------------|------------------------|-----------------|--------|---------------------|


E|-3------|-3----3--------------|-10-----|-10-----|-7------|-7------|--------|---------------------|
B|--------|----------------12---|--------|--------|-8------|-8------|--------|----------------5----|
G|--------|-----------12--------|--------|--------|-9------|-9------|-2------|-2----2----5---------|
D|--------|---------------------|--------|--------|--------|--------|--------|---------------------|
A|--------|---------------------|--------|--------|--------|--------|--------|---------------------|
E|--------|---------------------|--------|--------|--------|--------|--------|---------------------|


E|-3------|-3----3--------------|-10-----|-10---12---10--------|-10--12--10--10-------------|
B|--------|----------------12---|--------|----------------12---|----------------------------|
G|--------|-----------12--------|--------|---------------------|------------------12--------|
D|--------|---------------------|--------|---------------------|----------------------------|
A|--------|---------------------|--------|---------------------|----------------------------|
E|--------|---------------------|--------|---------------------|----------------------------|


E|--------|--------|---------------------|-3------|-3----3--------------|-10-----|
B|--------|--------|----------------5----|--------|----------------12---|--------|
G|--------|-2------|-2----2----5---------|--------|-----------12--------|--------|
D|--------|--------|---------------------|--------|---------------------|--------|
A|--------|--------|---------------------|--------|---------------------|--------|
E|--------|--------|---------------------|--------|---------------------|--------|


E|-10-----|-7------|-7------|--------|---------------------|-3------|-3----3--------------|
B|--------|-8------|-8------|--------|----------------5----|--------|----------------12---|
G|--------|-9------|-9------|-2------|-2----2----5---------|--------|-----------12--------|
D|--------|--------|--------|--------|---------------------|--------|---------------------|
A|--------|--------|--------|--------|---------------------|--------|---------------------|
E|--------|--------|--------|--------|---------------------|--------|---------------------|


E|-10-----|-10-----|---------------------|---------------------|---------------------|
B|--------|--------|---------------------|---------------------|---------------------|
G|--------|--------|---------------------|---------------------|-2----2----2----2----|
D|--------|--------|---------------------|---------------------|-2----2----2----2----|
A|--------|--------|-2----2----2----2----|-2----2----2----2----|-0----0----0----0----|
E|--------|--------|-0----0----0----0----|-0----0----0----0----|---------------------|


E|------------------------|---------------------|------------------------|---------------------|
B|------------------------|---------------------|------------------------|---------------------|
G|-2----------------------|-5----5----5----5----|-5----------------------|-2----2----2----2----|
D|-2----------------------|-5----5----5----5----|-5----------------------|-2----2----2----2----|
A|-0-----------------5----|-3----3----3----3----|-3-----------------5----|-0----0----0----0----|
E|------0---0---3---------|---------------------|------0---0---3---------|---------------------|


E|---------------------------|---------------------|------------------------|---------------------|
B|---------------------------|---------------------|------------------------|---------------------|
G|-2----7---0---7----0---0---|---------------------|--------------5----4----|-2----2----2----2----|
D|-2----7---0---7----0---0---|-2----2----2----2----|-2------------5----4----|-2----2----2----2----|
A|-0----5---0---5----0---0---|-2----2----2----2----|-2------------3----2----|-0----0----0----0----|
E|---------------------------|-0--------------0----|-0----0---0-------------|---------------------|


E|------------------------|---------------------|------------------------|---------------------|
B|------------------------|---------------------|------------------------|---------------------|
G|-2----------------------|-5----5----5----5----|-5----------------------|-2----2----2----2----|
D|-2----------------------|-5----5----5----5----|-5----------------------|-2----2----2----2----|
A|-0-----------------5----|-3----3----3----3----|-3-----------------5----|-0----0----0----0----|
E|------0---0---3---------|---------------------|------0---0---3---------|---------------------|


E|---------------------|--------|-------------|---------------------|------------------------|
B|---------------------|--------|-------------|---------------------|------------------------|
G|-2----2--------------|--------|-------------|-2----2----2----2----|-2----------------------|
D|-2----2--------------|-2------|-2-----------|-2----2----2----2----|-2----------------------|
A|-0----0----5----4----|-2------|-2-----------|-0----0----0----0----|-0-----------------5----|
E|------0----3----2----|-0------|-0------0----|---------------------|------0---0---3---------|


E|---------------------|------------------------|---------------------|---------------------------|
B|---------------------|------------------------|---------------------|---------------------------|
G|-5----5----5----5----|-5----------------------|-2----2----2----2----|-2----7---0---7----0---0---|
D|-5----5----5----5----|-5----------------------|-2----2----2----2----|-2----7---0---7----0---0---|
A|-3----3----3----3----|-3-----------------5----|-0----0----0----0----|-0----5---0---5----0---0---|
E|---------------------|------0---0---3---------|---------------------|---------------------------|


E|---------------------|------------------------|---------------------|------------------------|
B|---------------------|------------------------|---------------------|------------------------|
G|---------------------|--------------5----4----|-2----2----2----2----|-2----------------------|
D|-2----2----2----2----|-2------------5----4----|-2----2----2----2----|-2----------------------|
A|-2----2----2----2----|-2------------3----2----|-0----0----0----0----|-0-----------------5----|
E|-0--------------0----|-0----0---0-------------|---------------------|------0---0---3---------|


E|---------------------|------------------------|---------------------|---------------------|
B|---------------------|------------------------|---------------------|---------------------|
G|-5----5----5----5----|-5----------------------|-2----2----2----2----|-2----2--------------|
D|-5----5----5----5----|-5----------------------|-2----2----2----2----|-2----2--------------|
A|-3----3----3----3----|-3-----------------5----|-0----0----0----0----|-0----0----5----4----|
E|---------------------|------0---0---3---------|---------------------|------0----3----2----|


E|--------|--------|--------|--------|--------|--------|-----------------------------|
B|--------|--------|--------|--------|--------|--------|-----------------------------|
G|--------|--------|--------|--------|--------|--------|-----------------0-----------|
D|-2------|-2------|--------|--------|-2------|-2------|-----------------------9--9--|
A|-2------|-2------|--------|--------|-2------|-2------|-----------------------------|
E|-0------|-0------|--------|--------|-0------|-0------|-----------------------------|


E|---------------------------------------|-----------------------|---------------------------|
B|---------------------------------------|-----------------------|---------------------------|
G|---------------------------------------|-7---9-------9---9-----|-7---9-------9---12--11----|
D|-9---7--7--7---5--5--5---4--4--4---5---|-7---9-------9---9-----|-7---9-------9---12--11----|
A|---------------------------------------|-5---7-------7---7-----|-5---7-------7---10--9-----|
E|---------------------------------------|-----------------------|---------------------------|


E|-----------------------------|---------------------------------------|-----------------------|
B|-----------------------------|---------------------------------------|-----------------------|
G|-----7-------7---7-----------|-----------------------------------4---|-7---9-------9---9-----|
D|-----7-------7---7-----9--9--|-9---7--7--7---5--5--5---4--4--4-------|-7---9-------9---9-----|
A|-----5-------5---5-----------|---------------------------------------|-5---7-------7---7-----|
E|-----------------------------|---------------------------------------|-----------------------|


E|---------------------------|-----------------------------|---------------------------------------|
B|---------------------------|-----------------------------|---------------------------------------|
G|-7---9-------9---12--11----|-----7-------7---7-----------|---------------------------------------|
D|-7---9-------9---12--11----|-----7-------7---7-----9--9--|-9---7--7--7---5--5--5---4--4--4---5---|
A|-5---7-------7---10--9-----|-----5-------5---5-----------|---------------------------------------|
E|---------------------------|-----------------------------|---------------------------------------|


E|-----------------------|---------------------------|-----------------------------|
B|-----------------------|---------------------------|-----------------------------|
G|-----------------------|---------------------------|-----------------------7--7--|
D|-4---5-------5---5-----|-4---5---4---5---9---7-----|-----4-------4---4-----------|
A|-----------------------|---------------------------|-----------------------------|
E|-----------------------|---------------------------|-----------------------------|


E|---------------------------------------|-----------------------|------------------------------|
B|---------------------------------------|-----------------------|------------------------------|
G|-7---6--6--6---4--4--4---2--2--2---4---|-----------------------|------------------------------|
D|---------------------------------------|-7---9-------9---9-----|-7---9-------9---12--11-------|
A|---------------------------------------|-----------------------|--------------------------9---|
E|---------------------------------------|-----------------------|------------------------------|


E|-----------------------------|---------------------------------------|-----------------------|
B|-----------------------7--7--|-7---5--5--5---3--3--3---2--2--2---3---|-----------------------|
G|-----------------------------|---------------------------------------|-7---9-------9---9-----|
D|-12--11-------12--11---------|---------------------------------------|-7---9-------9---9-----|
A|----------9------------------|---------------------------------------|-5---7-------7---7-----|
E|-----------------------------|---------------------------------------|-----------------------|


E|---------------------------|-----------------------------|---------------------------------------|
B|---------------------------|-----------------------------|---------------------------------------|
G|-7---9-------9---12--11----|-----7-------7---7-----------|-----------------------------------4---|
D|-7---9-------9---12--11----|-----7-------7---7-----9--9--|-9---7--7--7---5--5--5---4--4--4-------|
A|-5---7-------7---10--9-----|-----5-------5---5-----------|---------------------------------------|
E|---------------------------|-----------------------------|---------------------------------------|


E|-----------------------|---------------------------|-----------------------------|
B|-----------------------|---------------------------|-----------------------------|
G|-7---9-------9---9-----|-7---9-------9---12--11----|-----7-------7---7-----------|
D|-7---9-------9---9-----|-7---9-------9---12--11----|-----7-------7---7-----9--9--|
A|-5---7-------7---7-----|-5---7-------7---10--9-----|-----5-------5---5-----------|
E|-----------------------|---------------------------|-----------------------------|


E|---------------------------------------|---------------------------|---------------------------|
B|---------------------------------------|---------------------------|---------------------------|
G|---------------------------------------|-----------------9-----9---|-----------------12--11----|
D|-9---7--7--7---5--5--5---4--4--4---5---|-----------------9-----9---|-----------------12--11----|
A|---------------------------------------|-----------------7-----7---|-----------------10--9-----|
E|---------------------------------------|-0---0---0---0-------------|-0---0---0---0-------------|


E|-----------------------------|---------------------------------------|---------------------------|
B|-----------------7-----------|---------------------------------------|---------------------------|
G|-----------------7-----------|-----------------------------------4---|-----------------9-----9---|
D|-----------------7-----9--9--|-9---7--7--7---5--5--5---4--4--4-------|-----------------9-----9---|
A|-----------------5-----------|---------------------------------------|-----------------7-----7---|
E|-0---0---0---0---------------|---------------------------------------|-0---0---0---0-------------|


E|---------------------------|-----------------------------|---------------------------------------|
B|---------------------------|-----------------7-----------|---------------------------------------|
G|-----------------12--11----|-----------------7-----------|-----------------------------------4---|
D|-----------------12--11----|-----------------7-----9--9--|-9---7--7--7---5--5--5---4--4--4---5---|
A|-----------------10--9-----|-----------------5-----------|---------------------------------------|
E|-0---0---0---0-------------|-0---0---0---0---------------|---------------------------------------|


E|-----------------------|---------------------------|-----------------------|---------------------------|
B|-----------------------|---------------------------|-----------------------|---------------------------|
G|-----------------------|---------------------------|-----------------------|---------------------------|
D|-------3-4---4----2----|-2-------------------------|-------3-4---4----2----|-2-------------------------|
A|-2---------------------|-----5-----4---2-----------|-----------------------|-----5-----4---2-----------|
E|-----------------------|-------------------5---2---|-5---------------------|-------------------5---2---|


E|-----------------------|---------------------------|-----------------------|---------------------------|
B|-----------------------|---------------------------|-----------------------|---------------------------|
G|-----------------------|---------------------------|-----------------------|---------------------------|
D|-------3-4---4----2----|-2-------------------------|-------3-4---4----2----|-2-------------------------|
A|-----------------------|-----5-----4---2-----------|-----------------------|-----5-----4---2-----------|
E|-3---------------------|-------------------5---2---|-5---------------------|-------------------5---2---|


E|-----------------------|-------------------------|------------------|--------------------------------|
B|-----------------------|-------------------------|-7----------------|----------------------------7---|
G|-----------------------|---------------------7---|-9-----9-----9----|-9---9----9--7--9---9---9-------|
D|-------3-4---4----2----|-------8-9---9---9-------|------------------|--------------------------------|
A|-2---------------------|-------------------------|------------------|--------------------------------|
E|-----------------------|-------------------------|------------------|--------------------------------|


E|-----------------------------------------|-----------------------------|-----------------------------------|
B|-7-8---8---7-8-7-------7-8---8---7-------|-8----7---------10---8---10--|-10-12--10---8----8--10--8----7----|
G|-------------------7-----------------7---|-----------7-----------------|-----------------------------------|
D|-----------------------------------------|-----------------------------|-----------------------------------|
A|-----------------------------------------|-----------------------------|-----------------------------------|
E|-----------------------------------------|-----------------------------|-----------------------------------|


E|---------------------------------|---------------------------|---------------------------------|
B|-7--8---7---------7--------------|---------------------------|---------------------------------|
G|-------------9---------9----7----|-------------------7---9---|-9----7--9---7---7-------7---9---|
D|---------------------------------|-7----9---9----9-----------|---------------------9-----------|
A|---------------------------------|---------------------------|---------------------------------|
E|---------------------------------|---------------------------|---------------------------------|


E|-------------------------------------------------|-------------------------------|
B|-7--7--10-7--12-7--10-7--12-7--10-7--12-7--10-7--|-8--7--12-7------------8---12--|
G|-------------------------------------------------|-------------9----9------------|
D|-------------------------------------------------|-------------------------------|
A|-------------------------------------------------|-------------------------------|
E|-------------------------------------------------|-------------------------------|


E|-12----12----12----12----12----12----|-12-15-12----12-151215-12-------------------------|
B|-15-------15----15----15----15----15-|----------15--------------15-12-------15-12-------|
G|-------------------------------------|--------------------------------14-12-------14-12-|
D|-------------------------------------|--------------------------------------------------|
A|-------------------------------------|--------------------------------------------------|
E|-------------------------------------|--------------------------------------------------|


E|-----------------|------------------------------|--------------------------------------|
B|-12---12---12----|-12---------------------------|-15---15---17-12----------------------|
G|-12---12---12----|-12---14----14-12-14-12-------|-----------------14-12-14-12-------14-|
D|-----------------|------------------------14-12-|-----------------------------14-12----|
A|-----------------|------------------------------|--------------------------------------|
E|-----------------|------------------------------|--------------------------------------|


E|-------------------------------------|-----------------------------------------|
B|---------------------14------12------|-15--17-12-15--17-12-15--17-12-15--17-12-|
G|-14--14-12-14-12-----14------12--12--|-----------------------------------------|
D|-----------------14------14----------|-----------------------------------------|
A|-------------------------------------|-----------------------------------------|
E|-------------------------------------|-----------------------------------------|


E|-15-12-------15-12-17-12-15-12-------15-12-17-12-|-15-12-------15-12-17-12-15-12-------15-12-17-12-|
B|-------15-12-------------------15-12-------------|-------15-12-------------------15-12-------------|
G|-------------------------------------------------|-------------------------------------------------|
D|-------------------------------------------------|-------------------------------------------------|
A|-------------------------------------------------|-------------------------------------------------|
E|-------------------------------------------------|-------------------------------------------------|


E|-15-12-------15-12-17-12-15-12-------15-12-17-12-|-15-13-12-13-12----12----------------------------|
B|-------15-12-------------------15-12-------------|----------------15----15-13-15-13-12-13-12----12-|
G|-------------------------------------------------|-------------------------------------------14----|
D|-------------------------------------------------|-------------------------------------------------|
A|-------------------------------------------------|-------------------------------------------------|
E|-------------------------------------------------|-------------------------------------------------|


E|-------------------------------------------------|-------------------------------------------------|
B|-------------------------------------------------|-10-8--7-----------10-8--7-----------10-8--7-----|
G|-14-12-14-12-11-12-11-9--11-9--7--9--7--6--7--6--|----------9--7--------------9--7--------------9--|
D|-------------------------------------------------|----------------9-----------------9--------------|
A|-------------------------------------------------|-------------------------------------------------|
E|-------------------------------------------------|-------------------------------------------------|


E|-------------------------------------------------|---------------------|----------------------|
B|-------10-8--7-----------10-8--7-----------------|---------------------|----------------------|
G|-7--------------9--7--------------9--7-----7--9--|-9----9----9-----7---|-4---12---12----0--2--|
D|----9-----------------9-----------------9--------|---------------------|----------------------|
A|-------------------------------------------------|---------------------|----------------------|
E|-------------------------------------------------|---------------------|----------------------|


E|-----------------------------------------|-----------------------------------------|
B|-----------2------2--3---2--3--5---3--5--|-7---5--7--8---7--8--10--8--10-12--10-12-|
G|-4---2--4------4-------------------------|-----------------------------------------|
D|-----------------------------------------|-----------------------------------------|
A|-----------------------------------------|-----------------------------------------|
E|-----------------------------------------|-----------------------------------------|


E|-------------------------------------|-----------------------------|-15-12----12-15-12-14-12----12-15-12-14-12----12-|
B|-14--14--15-14-15-14-----14--15--17--|-19--20--22---22---22-----12-|-------12----------------12----------------12----|
G|---------------------16--------------|-----------------------------|-------------------------------------------------|
D|-------------------------------------|-----------------------------|-------------------------------------------------|
A|-------------------------------------|-----------------------------|-------------------------------------------------|
E|-------------------------------------|-----------------------------|-------------------------------------------------|


E|-15-12----12-15-12-14-12----12-15-12-14-12----12-|-17-14----14-17-14----14-17-14----14-17-14----14-|
B|-------12----------------12----------------12----|-------15----------15----------15----------15----|
G|-------------------------------------------------|-------------------------------------------------|
D|-------------------------------------------------|-------------------------------------------------|
A|-------------------------------------------------|-------------------------------------------------|
E|-------------------------------------------------|-------------------------------------------------|


E|-17-14----14-17-14----14-17-14----14-17-14----14-|-19-15----15-19-15-17-15----15-19-15-17-15----15-|
B|-------15----------15----------15----------15----|-------17----------------17----------------17----|
G|-------------------------------------------------|-------------------------------------------------|
D|-------------------------------------------------|-------------------------------------------------|
A|-------------------------------------------------|-------------------------------------------------|
E|-------------------------------------------------|-------------------------------------------------|


E|-19-15----15-19-15-17-15----15-19-15-17-15----15-|-21-17----17-21-17----17-21-17----17-21-17----17-|
B|-------17----------------17----------------17----|-------19----------19----------19----------19----|
G|-------------------------------------------------|-------------------------------------------------|
D|-------------------------------------------------|-------------------------------------------------|
A|-------------------------------------------------|-------------------------------------------------|
E|-------------------------------------------------|-------------------------------------------------|


E|-21-17----17-21-17----17-21-17----17-21-17----17-|-22---22---22---22---|-22---22---22---22---22--19--|
B|-------19----------19----------19----------19----|---------------------|-----------------------------|
G|-------------------------------------------------|---------------------|-----------------------------|
D|-------------------------------------------------|---------------------|-----------------------------|
A|-------------------------------------------------|---------------------|-----------------------------|
E|-------------------------------------------------|---------------------|-----------------------------|


E|-22--20--19--20--19--17--19--17--15--17-15-14-15-14----|----14-----------------------------------------|
B|----------------------------------------------------17-|-17----17--15----------17--17--17----------17--|
G|-------------------------------------------------------|---------------14--16--------------14--16------|
D|-------------------------------------------------------|-----------------------------------------------|
A|-------------------------------------------------------|-----------------------------------------------|
E|-------------------------------------------------------|-----------------------------------------------|


E|---------------------------------|-------------------------------------|-----14--19--14----------------------------------|
B|-15---17--15------15---17-15-----|-------------------14------12--12----|-15--------------15------------------------------|
G|--------------16-------------16--|-16---14-16-14-----14------12--12-14-|---------------------16--14----------------------|
D|---------------------------------|---------------16------14------------|-----------------------------16--14--------------|
A|---------------------------------|-------------------------------------|-------------------------------------16--14------|
E|---------------------------------|-------------------------------------|---------------------------------------------17--|


E|--------------------------------------|-------------------|-------------|--------------------------|
B|--------------------------------------|-------------------|-------------|--------------------------|
G|-----------------14-------------------|-------------------|-------------|--------------------------|
D|---------14--16------14--14-----------|-------3-4---4-----|-2-----------|--------------------------|
A|-14--16-------------------------------|-2-----------------|-------5-----|-5----4----2--------------|
E|------------------------------12--0---|-------------------|-------------|----------------5----2----|


E|-----------------|--------|--------|---------------------------|-12---10---9---7---9---7--7---|
B|-----------------|--------|--------|----------------------7----|-12---10---9---7---9---7--7---|
G|-----------------|--------|--------|--------------4---7--------|------------------------------|
D|-----------------|-9------|-9------|---------4-----------------|------------------------------|
A|-----------------|-9------|-9------|-2---4---------------------|------------------------------|
E|-2----3----2-----|-7------|-7------|---------------------------|------------------------------|


E|-7---9----7----9---7----|-7--7--7--7--7--7--7--7--7--7--7--7--7--7--7--7--7--7--7--7--7--7--7--7--|
B|-7---9----7----9---7----|-7--7--7--7--7--7--7--7--7--7--7--7--7--7--7--7--7--7--7--7--7--7--7--7--|
G|------------------------|-------------------------------------------------------------------------|
D|------------------------|-------------------------------------------------------------------------|
A|------------------------|-------------------------------------------------------------------------|
E|------------------------|-------------------------------------------------------------------------|


E|-7--7--7--7--7--7--7--7--7--7--7--7--7--7--7--7--7--7--7--7--7--7--7--7--|-7--8--9--10-11-12-13-14-15-16-17-18-19-19-19-19-19-19-19-19-19-19-19-19-|
B|-7--7--7--7--7--7--7--7--7--7--7--7--7--7--7--7--7--7--7--7--7--7--7--7--|-7--8--9--10-11-12-13-14-15-16-17-18-19-19-19-19-19-19-19-19-19-19-19-19-|
G|-------------------------------------------------------------------------|-------------------------------------------------------------------------|
D|-------------------------------------------------------------------------|-------------------------------------------------------------------------|
A|-------------------------------------------------------------------------|-------------------------------------------------------------------------|
E|-------------------------------------------------------------------------|-------------------------------------------------------------------------|


E|-19-19-19-19-19-19-19-19-19-19-19-19-19-19-19-19-19-19-19-19-19-19-19-19-|-19-19-19-19-19-19-19-19-19-19-19-19-19-19-19-19-19-19-19-19-19-19-19-19-|
B|-19-19-19-19-19-19-19-19-19-19-19-19-19-19-19-19-19-19-19-19-19-19-19-19-|-19-19-19-19-19-19-19-19-19-19-19-19-19-19-19-19-19-19-19-19-19-19-19-19-|
G|-------------------------------------------------------------------------|-------------------------------------------------------------------------|
D|-------------------------------------------------------------------------|-------------------------------------------------------------------------|
A|-------------------------------------------------------------------------|-------------------------------------------------------------------------|
E|-------------------------------------------------------------------------|-------------------------------------------------------------------------|


E|-19-19-19-19-19-19-19-19-19-19-19-19-19-19-19-19-19-19-19-19-19-19-19-19-|-19-19-19-19-19-19-19-19-19-19-19-19-19-19-19-19-19-19-19-19-19-19-19-19-|
B|-19-19-19-19-19-19-19-19-19-19-19-19-19-19-19-19-19-19-19-19-19-19-19-19-|-19-19-19-19-19-19-19-19-19-19-19-19-19-19-19-19-19-19-19-19-19-19-19-19-|
G|-------------------------------------------------------------------------|-------------------------------------------------------------------------|
D|-------------------------------------------------------------------------|-------------------------------------------------------------------------|
A|-------------------------------------------------------------------------|-------------------------------------------------------------------------|
E|-------------------------------------------------------------------------|-------------------------------------------------------------------------|


E|-19-19-19-19-19-19-19-19-19-19-19-19-19-19-19-19-19-19-19-19-19-19-19-19-|-19-19-19-19-19-19-19-19-19-19-19-19-19-19-19-19-19-19-19-19-19-19-19-19-|
B|-19-19-19-19-19-19-19-19-19-19-19-19-19-19-19-19-19-19-19-19-19-19-19-19-|-19-19-19-19-19-19-19-19-19-19-19-19-19-19-19-19-19-19-19-19-19-19-19-19-|
G|-------------------------------------------------------------------------|-------------------------------------------------------------------------|
D|-------------------------------------------------------------------------|-------------------------------------------------------------------------|
A|-------------------------------------------------------------------------|-------------------------------------------------------------------------|
E|-------------------------------------------------------------------------|-------------------------------------------------------------------------|


E|-19-19-19-19-19-19-19-19-19-19-19-19-19-19-19-19-19-19-19-19-19-19-19-19-|-19-19-19-19-19-19-19-19-19-19-19-19-19-19-19-19-19-19-19-19-19-19-19-19-|
B|-19-19-19-19-19-19-19-19-19-19-19-19-19-19-19-19-19-19-19-19-19-19-19-19-|-19-19-19-19-19-19-19-19-19-19-19-19-19-19-19-19-19-19-19-19-19-19-19-19-|
G|-------------------------------------------------------------------------|-------------------------------------------------------------------------|
D|-------------------------------------------------------------------------|-------------------------------------------------------------------------|
A|-------------------------------------------------------------------------|-------------------------------------------------------------------------|
E|-------------------------------------------------------------------------|-------------------------------------------------------------------------|


E|-19-19-19-19-19-19-19-19-19-19-19-19-19-19-19-19-19-19-19-19-19-19-19-19-|-19-19-19-19-19-19-19-19-19-19-19-19-19-19-19-19-19-19-19-19-19-19-19-19-|
B|-19-19-19-19-19-19-19-19-19-19-19-19-19-19-19-19-19-19-19-19-19-19-19-19-|-19-19-19-19-19-19-19-19-19-19-19-19-19-19-19-19-19-19-19-19-19-19-19-19-|
G|-------------------------------------------------------------------------|-------------------------------------------------------------------------|
D|-------------------------------------------------------------------------|-------------------------------------------------------------------------|
A|-------------------------------------------------------------------------|-------------------------------------------------------------------------|
E|-------------------------------------------------------------------------|-------------------------------------------------------------------------|


E|-19-19-19-19-19-19-19-19-19-19-19-19-19-19-19-19-19-19-19-19-19-19-19-19-|-19-19-19-19-19-19-19-19-19-19-19-19-19-19-19-19-19-19-19-19-19-19-19-19-|
B|-19-19-19-19-19-19-19-19-19-19-19-19-19-19-19-19-19-19-19-19-19-19-19-19-|-19-19-19-19-19-19-19-19-19-19-19-19-19-19-19-19-19-19-19-19-19-19-19-19-|
G|-------------------------------------------------------------------------|-------------------------------------------------------------------------|
D|-------------------------------------------------------------------------|-------------------------------------------------------------------------|
A|-------------------------------------------------------------------------|-------------------------------------------------------------------------|
E|-------------------------------------------------------------------------|-------------------------------------------------------------------------|


E|-19-19-19-19-19-19-19-19-19-19-19-19-19-19-19-19-19-19-19-19-19-19-19-19-|-19-19-19-19-19-19-19-19-19-19-19-19-19-19-19-19-19-19-19-19-19-19-19-19-|
B|-19-19-19-19-19-19-19-19-19-19-19-19-19-19-19-19-19-19-19-19-19-19-19-19-|-19-19-19-19-19-19-19-19-19-19-19-19-19-19-19-19-19-19-19-19-19-19-19-19-|
G|-------------------------------------------------------------------------|-------------------------------------------------------------------------|
D|-------------------------------------------------------------------------|-------------------------------------------------------------------------|
A|-------------------------------------------------------------------------|-------------------------------------------------------------------------|
E|-------------------------------------------------------------------------|-------------------------------------------------------------------------|


E|-19-19-19-19-19-19-19-19-19-19-19-19-19-19-19-19-19-19-19-19-19-19-19-19-|-19-19-19-19-19-19-19-19-19-19-19-19-19-19-19-19-19-19-19-19-19-19-19-19-|
B|-19-19-19-19-19-19-19-19-19-19-19-19-19-19-19-19-19-19-19-19-19-19-19-19-|-19-19-19-19-19-19-19-19-19-19-19-19-19-19-19-19-19-19-19-19-19-19-19-19-|
G|-------------------------------------------------------------------------|-------------------------------------------------------------------------|
D|-------------------------------------------------------------------------|-------------------------------------------------------------------------|
A|-------------------------------------------------------------------------|-------------------------------------------------------------------------|
E|-------------------------------------------------------------------------|-------------------------------------------------------------------------|


E|-21----19---21--22--|-21----19---21--22--|-21----19---21--22--|-21---24--22--21---22---|
B|-21----19---21--22--|-21----19---21--22--|-21----19---21--22--|-21---24--22--21---22---|
G|--------------------|--------------------|--------------------|------------------------|
D|--------------------|--------------------|--------------------|------------------------|
A|--------------------|--------------------|--------------------|------------------------|
E|--------------------|--------------------|--------------------|------------------------|


E|-19-----|------------------------------|
B|-19-----|------------------------------|
G|--------|------------------------------|
D|--------|------------------------------|
A|--------|-12--2---12--2---12--2--------|
E|--------|-12--0---12--0---12--0--------|









Track 3: Jason
Back to top
G|--------|--------|--------|--------|--------|--------|--------|--------|--------|
D|--------|--------|--------|--------|--------|--------|--------|--------|--------|
A|--------|--------|--------|--------|--------|--------|--------|--------|--------|
E|--------|--------|--------|--------|--------|--------|--------|--------|--------|


G|-------------|--------------------------|-11-----11---|-11--------------|-----------------11---11-12-|
D|-------------|----------12---12-11-11---|-------------|-----------------|-12---12-11-11--------------|
A|-------------|------12------------------|-------------|-------------12--|----------------------------|
E|--------0----|-0------------------------|-------------|-------0---------|----------------------------|


G|-12--12--11--11---11----|----------------------|------11---11-12---12--11--|-11--11-12---12--11----11--|
D|------------------------|-----------12---12-11-|-11------------------------|---------------------------|
A|------------------------|-------12-------------|---------------------------|---------------------------|
E|------------------------|-0--------------------|---------------------------|---------------------------|


G|-11----11---12---11-------|-----------------|-------------|--------------------------|
D|----------------------12--|-12---12----12---|-12----------|----------12---12-11-11---|
A|--------------------------|-----------------|-------------|------12------------------|
E|--------------------------|-----------------|--------0----|-0------------------------|


G|-11-----11---|-11--------------|-----------------11---11-12-|-12--12--11--11---11----|
D|-------------|-----------------|-12---12-11-11--------------|------------------------|
A|-------------|-------------12--|----------------------------|------------------------|
E|-------------|-------0---------|----------------------------|------------------------|


G|----------------------|------11---11-12---12--11--|-11--11-12---12--11----11--|-11------------------|
D|-----------12---12-11-|-11------------------------|---------------------------|-------12--------12--|
A|-------12-------------|---------------------------|---------------------------|---------------------|
E|-0--------------------|---------------------------|---------------------------|---------------------|


G|--------|--------|--------|--------|--------|--------|--------|--------|--------|
D|-12-----|-12-----|--------|--------|--------|--------|--------|--------|--------|
A|--------|--------|--------|--------|--------|--------|--------|--------|--------|
E|--------|--------|--------|--------|--------|--------|--------|--------|--------|


G|-------------|--------|--------|--------|--------|--------|--------|--------|---------------------|
D|-------------|--------|--------|--------|--------|--------|--------|--------|---------------------|
A|--------0----|-2------|-2------|-2------|-2------|-2------|-2------|-2------|-2----2----2----0----|
E|-------------|--------|--------|--------|--------|--------|--------|--------|---------------------|


G|--------|--------|--------|--------|--------|--------|--------|---------------------|
D|--------|--------|--------|--------|--------|--------|--------|---------------------|
A|-2------|-2------|-2------|-2------|-2------|-2------|-2------|-2----2----2----0----|
E|--------|--------|--------|--------|--------|--------|--------|---------------------|


G|--------|--------|--------|--------|--------|--------|--------|---------------------|
D|--------|--------|--------|--------|--------|--------|--------|---------------------|
A|-2------|-2------|-2------|-2------|-2------|-2------|-2------|-2----2----2----0----|
E|--------|--------|--------|--------|--------|--------|--------|---------------------|


G|--------|--------|--------|--------|--------|--------|--------|--------|---------------------|
D|--------|--------|--------|--------|--------|--------|--------|--------|---------------------|
A|-2------|-2------|-2------|-2------|-2------|-2------|-2------|-2------|---------------------|
E|--------|--------|--------|--------|--------|--------|--------|--------|-1----1----1----1----|


G|---------------------|---------------------|---------------------|--------|-----------------|
D|---------------------|---------------------|-2----2----2----2----|--------|-----------------|
A|---------------------|-2----2----2----2----|---------------------|-0------|-0-----0----2----|
E|-4----4----4----4----|---------------------|---------------------|--------|-----------------|


G|--------|--------------------|--------|--------|-------------|-------------|--------|
D|--------|---------------2----|-5------|-5------|-5-----------|-------------|--------|
A|-3------|-3-----2---3--------|--------|--------|-------------|-------2-----|-0------|
E|--------|--------------------|--------|--------|-------12----|-3-----------|--------|


G|---------------------|--------|-----------------|--------|---------------------------|
D|---------------------|--------|-----------------|--------|----------------------5----|
A|-0----0----0----2----|-3------|-3-----3----2----|--------|----------0---2---2--------|
E|---------------------|--------|-----------------|-3------|-3----3--------------------|


G|---------------------|-------------|--------|-----------------|--------|-----------------|
D|-3----2--------------|-------------|--------|-----------------|--------|-----------------|
A|-----------3---------|-------2-----|-0------|-0-----0----2----|-3------|-3-----3----2----|
E|----------------0----|-3-----------|--------|-----------------|--------|-----------------|


G|--------|-----------------|--------|-------------|--------|-----------------|--------|
D|--------|-----------------|--------|-------2-----|--------|-----------------|--------|
A|--------|-------3----2----|--------|-2-----------|-0------|-0-----0----2----|-3------|
E|-3------|-3---------------|-0------|-------------|--------|-----------------|--------|


G|--------------------|--------|-----------------|--------|-------------|--------|
D|---------------0----|--------|-----------------|--------|-2-----------|--------|
A|-3-----0---2--------|--------|-------0---------|--------|-------------|-0------|
E|--------------------|-3------|-3----------3----|-0------|-------0-----|--------|


G|-----------------|-----------------|-----------------|--------|-----------------|
D|-----------------|-----------------|-----------------|--------|-----------------|
A|-0-----0----2----|-3-----3----3----|-3-----3----2----|--------|-------0---------|
E|-----------------|-----------------|-----------------|-3------|-3----------3----|


G|-----------------|-----------------|--------|-----------------|--------|--------------------|
D|-----------------|------0----2-----|--------|-----------------|--------|---------------0----|
A|-----------------|-2---------------|-0------|-0-----0----2----|-3------|-3-----0---2--------|
E|-3-----3----3----|-----------------|--------|-----------------|--------|--------------------|


G|--------|-----------------|--------|---------------------|--------|-----------------|
D|--------|-----------------|--------|---------------------|--------|-----------------|
A|--------|-------0---------|--------|-----------2---------|-0------|-0-----0----2----|
E|-3------|-3----------3----|-0------|-3-------------------|--------|-----------------|


G|-----------------|-----------------|--------|-----------------|--------|-------------|
D|-----------------|-----------------|--------|-----------------|--------|-2-----2-----|
A|-3-----3----3----|-3-----3----2----|--------|-------3----2----|--------|-------------|
E|-----------------|-----------------|-3------|-3---------------|-0------|-------------|


G|--------|-----------------|--------|-----------0---2---0-------|-0------|-0------------0---2---0----|
D|--------|-----------------|--------|------2----------------2---|--------|------0---2----------------|
A|-0------|-0-----0----2----|-3------|-3-------------------------|--------|---------------------------|
E|--------|-----------------|--------|---------------------------|--------|---------------------------|


G|---------------------|---------------------|---------------------|------------------------|
D|-2----2----2----2----|-2----2----2----2----|---------------------|------------------------|
A|---------------------|---------------------|-0----0----0----0----|-0-----------------5----|
E|---------------------|---------------------|---------------------|------0---0---3---------|


G|-------------|------------------------|-------------|-------------|-------------|
D|-------------|------------------------|-------------|-------------|-------------|
A|-3------3----|-3-----------------5----|-0------0----|-0-----5-----|-7-----------|
E|-------------|------0---0---3---------|-------------|-------------|--------0----|


G|------------------------|-------------|------------------------|-------------|------------------------|
D|------------------------|-------------|------------------------|-------------|------------------------|
A|--------------3----2----|-0------0----|-0-----------------5----|-3------3----|-3-----------------5----|
E|-0----0---0-------------|-------------|------0---0---3---------|-------------|------0---0---3---------|


G|-------------|-----------------|--------|--------|---------------------|------------------------|
D|-------------|-----------------|--------|--------|---------------------|------------------------|
A|-0------0----|-0---------------|--------|--------|-0----0----0----0----|-0-----------------5----|
E|-------------|-------3----2----|-0------|-0------|---------------------|------0---0---3---------|


G|-------------|------------------------|-------------|-------------|-------------|
D|-------------|------------------------|-------------|-------------|-------------|
A|-3------3----|-3-----------------5----|-0------0----|-0-----5-----|-7-----------|
E|-------------|------0---0---3---------|-------------|-------------|--------0----|


G|------------------------|-------------|------------------------|-------------|------------------------|
D|------------------------|-------------|------------------------|-------------|------------------------|
A|--------------3----2----|-0------0----|-0-----------------5----|-3------3----|-3-----------------5----|
E|-0----0---0-------------|-------------|------0---0---3---------|-------------|------0---0---3---------|


G|-------------|-----------------|--------|--------|--------|-----------------|--------|
D|-------------|-----------------|--------|--------|--------|-----------------|--------|
A|-0------0----|-0---------------|--------|--------|-0------|-0-----0----2----|-3------|
E|-------------|-------3----2----|-0------|-0------|--------|-----------------|--------|


G|--------------------|--------|-----------------|-----------------|---------------------|
D|---------------0----|--------|-----------------|-------2---------|---------------------|
A|-3-----0---2--------|--------|-------0---------|-----------------|---------------------|
E|--------------------|-3------|-3----------3----|-0----------0----|-0----0---------0----|


G|--------|-----------------|-------------|--------------------|-------------|-----------------|
D|--------|-----------------|-------------|---------------0----|-------------|-----------------|
A|-0------|-0-----0----2----|-3-----3-----|-3-----0---3--------|-------------|-------0---------|
E|--------|-----------------|-------------|--------------------|-3-----3-----|-3----------3----|


G|---------------------|---------------------|-------------|-----------------|-------------|
D|-2----2----2----2----|---------------------|-------------|------------0----|-------------|
A|---------------------|-----------2---------|-0------0----|-0-----0---------|-3------3----|
E|---------------------|-3----0--------------|-------------|-----------------|-------------|


G|-----------------|--------|-----------------|-------------|-------------|--------|
D|-------0---------|--------|-----------------|-------------|-------------|--------|
A|-3----------2----|--------|------0----------|--------0----|-0-----2-----|-0------|
E|-----------------|-3------|-3----------3----|-0-----------|-------------|--------|


G|-----------------|--------|-----------------|-------------|---------------------|
D|-----------------|--------|------------0----|-------------|---------------------|
A|-0-----0----2----|-3------|-3-----3---------|-------------|-----------0---------|
E|-----------------|--------|-----------------|-3-----3-----|-3----3---------3----|


G|--------|---------------------|--------|-----------------|-------------|-----------------|
D|--------|---------------------|--------|-----------------|-------------|-----------------|
A|--------|-----------2---------|-0------|-0-----0----2----|-3------3----|-3-----3----2----|
E|-0------|-0-------------------|--------|-----------------|-------------|-----------------|


G|-------------|-----------------|-----------------|-------------|--------|-----------------|
D|-------------|-----------------|-------2---------|-2-----------|--------|-----------------|
A|-------------|-------0---------|------------0----|-------2-----|-0------|-0-----0----2----|
E|-3------3----|-3----------3----|-0---------------|-------------|--------|-----------------|


G|-------------|--------------0---2---0-------|-0------|-0-----0---2---0----|---------------------|
D|-------------|------0---2---------------2---|--------|--------------------|-2----2----2----2----|
A|-3------3----|-3----------------------------|--------|--------------------|---------------------|
E|-------------|------------------------------|--------|--------------------|---------------------|


G|---------------------|---------------------|------------------------|-------------|
D|-2----2----2----2----|---------------------|------------------------|-------------|
A|---------------------|-0----0----0----0----|-0-----------------5----|-3------3----|
E|---------------------|---------------------|------0---0---3---------|-------------|


G|------------------------|-------------|-------------|-------------|------------------------|
D|------------------------|-------------|-------------|-------------|------------------------|
A|-3-----------------5----|-0------0----|-0-----5-----|-7-----------|--------------3----2----|
E|------0---0---3---------|-------------|-------------|--------0----|-0----0---0-------------|


G|-------------|------------------------|-------------|------------------------|-------------|
D|-------------|------------------------|-------------|------------------------|-------------|
A|-0------0----|-0-----------------5----|-3------3----|-3-----------------5----|-0------0----|
E|-------------|------0---0---3---------|-------------|------0---0---3---------|-------------|


G|-----------------|--------|--------|---------------------|------------------------|
D|-----------------|--------|--------|---------------------|------------------------|
A|-0---------------|--------|--------|-0----0----0----0----|-0-----------------5----|
E|-------3----2----|-0------|-0------|---------------------|------0---0---3---------|


G|-------------|------------------------|-------------|-------------|-------------|
D|-------------|------------------------|-------------|-------------|-------------|
A|-3------3----|-3-----------------5----|-0------0----|-0-----5-----|-7-----------|
E|-------------|------0---0---3---------|-------------|-------------|--------0----|


G|------------------------|-------------|------------------------|-------------|------------------------|
D|------------------------|-------------|------------------------|-------------|------------------------|
A|--------------3----2----|-0------0----|-0-----------------5----|-3------3----|-3-----------------5----|
E|-0----0---0-------------|-------------|------0---0---3---------|-------------|------0---0---3---------|


G|-------------|-----------------|--------|--------|--------|--------|--------|--------|
D|-------------|-----------------|--------|--------|--------|--------|--------|--------|
A|-0------0----|-0---------------|--------|--------|--------|--------|--------|--------|
E|-------------|-------3----2----|-0------|-0------|-0------|-0------|-0------|-0------|


G|------------4--4--|-4---2--2--2---0--0--0-------------0---|------------------------------|
D|------------------|-------------------------3--3--3-------|-0---2-----------2------------|
A|------------------|---------------------------------------|------------------------------|
E|-0------0---------|---------------------------------------|---------0---0--------0---0---|


G|-----------------0---------|-----------------------4--4--|-4---2--2--2---0--0--0-------------4---|
D|-0---2---------------3-----|-----0-------0---0-----------|-------------------------3--3--3-------|
A|---------------------------|-----------------------------|---------------------------------------|
E|---------0---0-------------|-----------------------------|---------------------------------------|


G|------------------------------|-----------------0--------7---|-----------------------4--4--|
D|-0---2-----------2------------|-0---2---------------3--------|-----0-------0---0-----------|
A|------------------------------|------------------------------|-----------------------------|
E|---------0---0--------0---0---|---------0---0----------------|-----------------------------|


G|-4---2--2--2---0--0--0-------------0---|------------------------------|-----------------0---------|
D|-------------------------3--3--3-------|-0---2-----------2------------|-0---2---------------3-----|
A|---------------------------------------|------------------------------|---------------------------|
E|---------------------------------------|---------0---0--------0---0---|---------0---0-------------|


G|-----------------------4--4--|-4---2--2--2---0--0--0-------------4---|------------------------------|
D|-----0-------0---0-----------|-------------------------3--3--3-------|-0---2-----------2------------|
A|-----------------------------|---------------------------------------|------------------------------|
E|-----------------------------|---------------------------------------|---------0---0--------0---0---|


G|-----------------0--------7---|-----------------------4--4--|-4---2--2--2---0--0--0-------------0---|
D|-0---2---------------3--------|-----0-------0---0-----------|-------------------------3--3--3-------|
A|------------------------------|-----------------------------|---------------------------------------|
E|---------0---0----------------|-----------------------------|---------------------------------------|


G|------------------------------|-----------------0-------7----|-----------------------4--4--|
D|-0---2-----------2------------|-0---2---------------3--------|-----0-------0---0-----------|
A|------------------------------|------------------------------|-----------------------------|
E|---------0---0--------0---0---|---------0---0----------------|-----------------------------|


G|-4---2--2--2---0--0--0-------------4---|------------------------------|-----------------0---------|
D|-------------------------3--3--3-------|-0---2-----------2------------|-0---2---------------3-----|
A|---------------------------------------|------------------------------|---------------------------|
E|---------------------------------------|---------0---0--------0---0---|---------0---0-------------|


G|-----------------------4--4--|-4---2--2--2---0--0--0-------------0---|-----------------------|
D|-----0-------0---0-----------|-------------------------3--3--3-------|-----------------2-----|
A|-----------------------------|---------------------------------------|-----------------------|
E|-----------------------------|---------------------------------------|-0---0---0---0---------|


G|---------------------------|-----------------------4--4--|-4---2--2--2---0--0--0-------------4---|
D|---------------------------|-----------------0-----------|-------------------------3--3--3-------|
A|---------------------------|-----------------------------|---------------------------------------|
E|-0---0---0---0---3---1-----|-0---0---0---0---------------|---------------------------------------|


G|-----------------------|---------------------------|-----------------------4--4--|
D|-----------------2-----|---------------------------|-----------------0-----------|
A|-----------------------|---------------------------|-----------------------------|
E|-0---0---0---0---------|-0---0---0---0---3---1-----|-0---0---0---0---------------|


G|-4---2--2--2---0--0--0-------------0---|------------------|---------------------------|
D|-------------------------3--3--3-------|------------------|---------------------------|
A|---------------------------------------|-2-----2-----2----|-2---2-----3---2---0-------|
E|---------------------------------------|------------------|-----------------------1---|


G|------------------|---------------------------|---------------------|---------------------------------|
D|------------------|---------------------------|---------------------|---------------------------------|
A|-0-----0-----0----|-0---0-----0---0---0---0---|---------------------|---------------------------------|
E|------------------|---------------------------|-3-----3-----3---3---|-3---3---3---3---3---3---3---3---|


G|------------------|---------------------------|------------------|---------------------------|
D|------------------|-------------------2---2---|------------------|---------------------------|
A|-0-----0-----0----|-0---0-----0---0-----------|-2-----2-----2----|-2---2-----3---2---0-------|
E|------------------|---------------------------|------------------|-----------------------1---|


G|------------------|---------------------------|---------------------|---------------------------------|
D|------------------|---------------------------|---------------------|---------------------------------|
A|-0-----0-----0----|-0---0-----0---0---0---0---|---------------------|---------------------------------|
E|------------------|---------------------------|-3-----3-----3---3---|-3---3---3---3---3---3---3---3---|


G|------------------|---------------------------|------------------------|------------------------------|
D|------------------|-------------------2---2---|------------------------|------------------------------|
A|-0-----0-----0----|-0---0-----0---0-----------|-2----2---2-----2---2---|-2---2----2---3---2---0-------|
E|------------------|---------------------------|------------------------|--------------------------1---|


G|---------------------------|------------------------------|---------------------------|
D|---------------------------|------------------------------|---------------------------|
A|-0---0---0---0-----0---0---|-0---0----0---0---0---0---0---|---------------------------|
E|---------------------------|------------------------------|-3---3---3---3-----3---3---|


G|---------------------------|---------------------|---------------------------|------------------------|
D|---------------------------|---------------------|-------------------2---2---|------------------------|
A|---------------------------|-0-----0-----0---0---|-0---0-----0---0-----------|-2----2---2-----2---2---|
E|-3---3-----3---3---3---3---|---------------------|---------------------------|------------------------|


G|------------------------------|---------------------------|------------------------------|
D|------------------------------|---------------------------|------------------------------|
A|-2---2----2---3---2---0-------|-0---0---0---0-----0---0---|-0---0----0---0---0---0---0---|
E|--------------------------1---|---------------------------|------------------------------|


G|---------------------------|---------------------------|---------------------|---------------------------|
D|---------------------------|---------------------------|---------------------|-------------------2---2---|
A|---------------------------|---------------------------|-0-----0-----0---0---|-0---0-----0---0-----------|
E|-3---3---3---3-----3---3---|-3---3-----3---3---3---3---|---------------------|---------------------------|


G|------------------------|------------------------------|---------------------------|
D|------------------------|------------------------------|---------------------------|
A|-2----2---2-----2---2---|-2---2----2---3---2---0-------|-0---0---0---0-----0---0---|
E|------------------------|--------------------------1---|---------------------------|


G|------------------------------|---------------------------|---------------------------|
D|------------------------------|---------------------------|---------------------------|
A|-0---0----0---0---0---0---0---|---------------------------|---------------------------|
E|------------------------------|-3---3---3---3-----3---3---|-3---3-----3---3---3---3---|


G|---------------------|---------------------------|------------------------|------------------------------|
D|---------------------|-------------------2---2---|------------------------|------------------------------|
A|---------------------|---------------------------|-2----2---2-----2---2---|-2---2----2---3---2---0-------|
E|-1-----1-----1---1---|-1---1-----1---1-----------|------------------------|--------------------------1---|


G|---------------------------|------------------------------|---------------------------|
D|---------------------------|------------------------------|---------------------------|
A|-0---0---0---0-----0---0---|-0---0----0---0---0---0---0---|---------------------------|
E|---------------------------|------------------------------|-3---3---3---3-----3---3---|


G|---------------------------|---------------------|---------------------------|--------|
D|---------------------------|---------------------|-------------------2---2---|--------|
A|---------------------------|-0-----0-----0---0---|-0---0-----0---0-----------|-2------|
E|-3---3-----3---3---3---3---|---------------------|---------------------------|--------|


G|--------|--------|--------|--------|--------|--------|--------|-------------------|
D|--------|--------|--------|--------|--------|--------|--------|-------3-4---4-----|
A|-2------|-0------|-0------|--------|--------|-0------|-0------|-2-----------------|
E|--------|--------|--------|-3------|-3------|--------|--------|-------------------|


G|-------------|--------------------------|-----------------|-------------|-------------|
D|-2-----------|--------------------------|-----------------|-------------|-------------|
A|-------5-----|-5----4----2--------------|-----------------|-2-----2-----|-2-----2-----|
E|-------------|----------------5----2----|-2----3----2-----|-------------|-------------|


G|-------------|-------------|-------------|-------------|-------------|-------------|
D|-------------|-------------|-------------|-------------|-------------|-------------|
A|-2-----2-----|-2-----2-----|-2-----2-----|-2-----2-----|-2-----2-----|-2-----2-----|
E|-------------|-------------|-------------|-------------|-------------|-------------|


G|-------------|-------------|-------------|-------------|-------------|-------------|
D|-------------|-------------|-------------|-------------|-------------|-------------|
A|-2-----2-----|-2-----2-----|-2-----2-----|-2-----2-----|-2-----2-----|-2-----2-----|
E|-------------|-------------|-------------|-------------|-------------|-------------|


G|-------------|-------------|-------------|-------------|-------------|-------------|
D|-------------|-------------|-------------|-------------|-------------|-------------|
A|-2-----2-----|-2-----2-----|-2-----2-----|-2-----2-----|-2-----2-----|-2-----2-----|
E|-------------|-------------|-------------|-------------|-------------|-------------|


G|-------------|---------------------|---------------------|---------------------|
D|-------------|---------------------|---------------------|---------------------|
A|-2-----2-----|-2----2----9----9----|-2----2----5----5----|-4----4----4----4----|
E|-------------|---------------------|---------------------|---------------------|


G|--------|--------|--------|--------|--------|------------------------------|
D|--------|--------|--------|--------|--------|------------------------------|
A|-4------|-4------|-4------|-4------|-2------|------------------------------|
E|--------|--------|--------|--------|--------|-5---0---5---0---5---0--------|









Track 4: Lars
Back to top
C|--------|--------|--------|--------|--------|--------|--------|--------|--------|
C|--------|--------|--------|--------|--------|--------|--------|--------|--------|
C|--------|--------|--------|--------|--------|--------|--------|--------|--------|
C|--------|--------|--------|--------|--------|--------|--------|--------|--------|
C|--------|--------|--------|--------|--------|--------|--------|--------|--------|
C|--------|--------|--------|--------|--------|--------|--------|--------|--------|


C|--------|--------|--------|--------|--------|--------|--------|--------|--------|
C|--------|--------|--------|--------|--------|--------|--------|--------|--------|
C|--------|--------|--------|--------|--------|--------|--------|--------|--------|
C|--------|--------|--------|--------|--------|--------|--------|--------|--------|
C|--------|--------|--------|--------|--------|--------|--------|--------|--------|
C|--------|--------|--------|--------|--------|--------|--------|--------|--------|


C|--------|--------|--------|--------|--------|--------|--------|--------|--------|
C|--------|--------|--------|--------|--------|--------|--------|--------|--------|
C|--------|--------|--------|--------|--------|--------|--------|--------|--------|
C|--------|--------|--------|--------|--------|--------|--------|--------|--------|
C|--------|--------|--------|--------|--------|--------|--------|--------|--------|
C|--------|--------|--------|--------|--------|--------|--------|--------|--------|


C|--------|--------|--------|--------|--------|-----------42--------|-----------42--------|
C|--------|--------|--------|--------|--------|---------------------|---------------------|
C|--------|--------|--------|--------|--------|---------------------|---------------------|
C|--------|--------|--------|--------|--------|---------------------|---------------------|
C|--------|--------|--------|--------|--------|---------------------|---------------------|
C|--------|--------|--------|--------|--------|---------------------|---------------------|


C|-----------42--------|-----------42--------|-----------42--------|-----------42--------|
C|---------------------|---------------------|---------------------|---------------------|
C|---------------------|---------------------|---------------------|---------------------|
C|---------------------|---------------------|---------------------|---------------------|
C|---------------------|---------------------|---------------------|---------------------|
C|---------------------|---------------------|---------------------|---------------------|


C|-----------42--------|-----------42---36---|-36--------42--------|-----------42--------|
C|---------------------|---------------------|---------------------|---------------------|
C|---------------------|---------------------|---------------------|---------------------|
C|---------------------|---------------------|---------------------|---------------------|
C|---------------------|---------------------|---------------------|---------------------|
C|---------------------|---------------------|---------------------|---------------------|


C|-----------42--------|-----------42--------|-----------42--------|-----------42--------|
C|---------------------|---------------------|---------------------|---------------------|
C|---------------------|---------------------|---------------------|---------------------|
C|---------------------|---------------------|---------------------|---------------------|
C|---------------------|---------------------|---------------------|---------------------|
C|---------------------|---------------------|---------------------|---------------------|


C|-----------42--------|-----------42---36---|-36--------42--------|-----------42--------|
C|---------------------|---------------------|---------------------|---------------------|
C|---------------------|---------------------|---------------------|---------------------|
C|---------------------|---------------------|---------------------|---------------------|
C|---------------------|---------------------|---------------------|---------------------|
C|---------------------|---------------------|---------------------|---------------------|


C|-----------42--------|-----------42--------|-----------42--------|-----------42--------|
C|---------------------|---------------------|---------------------|---------------------|
C|---------------------|---------------------|---------------------|---------------------|
C|---------------------|---------------------|---------------------|---------------------|
C|---------------------|---------------------|---------------------|---------------------|
C|---------------------|---------------------|---------------------|---------------------|


C|-----------42--------|-----------42---36---|-36--------42--------|-----------42--------|
C|---------------------|---------------------|---------------------|---------------------|
C|---------------------|---------------------|---------------------|---------------------|
C|---------------------|---------------------|---------------------|---------------------|
C|---------------------|---------------------|---------------------|---------------------|
C|---------------------|---------------------|---------------------|---------------------|


C|-----------42--------|-----------42--------|-----------42--------|-----------42--------|
C|---------------------|---------------------|---------------------|---------------------|
C|---------------------|---------------------|---------------------|---------------------|
C|---------------------|---------------------|---------------------|---------------------|
C|---------------------|---------------------|---------------------|---------------------|
C|---------------------|---------------------|---------------------|---------------------|


C|-----------42--------|-----------42---36---|-----------42--------|-----------42--------|
C|---------------------|---------------------|-36------------------|---------------------|
C|---------------------|---------------------|---------------------|---------------------|
C|---------------------|---------------------|---------------------|---------------------|
C|---------------------|---------------------|---------------------|---------------------|
C|---------------------|---------------------|---------------------|---------------------|


C|-----------42--------|-----------42--------|-----------42--------|-----------42--------|
C|---------------------|---------------------|---------------------|---------------------|
C|---------------------|---------------------|---------------------|---------------------|
C|---------------------|---------------------|---------------------|---------------------|
C|---------------------|---------------------|---------------------|---------------------|
C|---------------------|---------------------|---------------------|---------------------|


C|-----------57-57-57-57-57-57-57-57-|-57-57-57-57-57-57-57-57-57-57-57-57-57-57-57-57-|
C|-----------------------------------|-------------------------------------------------|
C|-----------------------------------|-------------------------------------------------|
C|-----------------------------------|-------------------------------------------------|
C|-----------------------------------|-------------------------------------------------|
C|-----------------------------------|-------------------------------------------------|


C|-49-------------57---|-49------------------|-49-------------49---|-49-------------49---|
C|-57-------------49---|-57-------------49---|---------------------|---------------------|
C|---------------------|----------------57---|-57-------------57---|-57-------------57---|
C|---------------------|---------------------|---------------------|---------------------|
C|---------------------|---------------------|---------------------|---------------------|
C|-36-------------36---|-36-------------36---|-36-------------36---|-36-------------36---|


C|-49----49---------------|-57-57-57-57-57-57-57-57-57-57-57-57-57-57-57-57-|--------|
C|-57----57---57-57-57-57-|-------------------------------------------------|--------|
C|------------------------|-------------------------------------------------|--------|
C|------------------------|-------------------------------------------------|--------|
C|------------------------|-------------------------------------------------|--------|
C|-36----36---------------|-------------------------------------------------|--------|


C|--------|--------|--------|--------|-------------|--------|---------------------|
C|--------|--------|--------|--------|-49----57----|--------|---------------------|
C|--------|--------|--------|--------|-36----36----|-49-----|---------------------|
C|--------|--------|--------|--------|-------------|-36-----|----------------36---|
C|--------|--------|--------|--------|-------------|--------|---------------------|
C|--------|--------|--------|--------|-------------|--------|---------------------|


C|--------|---------------------|---------------------|---------------------------|
C|--------|---------------------|---------------------|---------------------------|
C|--------|----------------36---|-36--------38--------|------38--38--38-----------|
C|-36-----|---------------------|---------------------|-36-------------------36---|
C|--------|---------------------|---------------------|---------------------------|
C|--------|---------------------|---------------------|---------------------------|


C|---------------------|---------------------|------------36---|-38----42---36---|
C|---------------------|---------------------|-57--------------|-----------------|
C|-36------------------|---------------------|-49--------------|-----------------|
C|-41------------------|-36--------38---36---|-36--------------|-----------------|
C|----------------38---|---------------------|-----------------|-----------------|
C|---------------------|---------------------|-----------------|-----------------|


C|-36----42---36---|-38---36--------36---|-36--------36---36--36--|-36----46----|-36---36--36--38--------|
C|-----------------|------42--------42---|-46--------46---46--46--|-38----------|-46---46--46--46--------|
C|-----------------|---------------------|------------------------|-49----------|------------------------|
C|-----------------|---------------------|------------------------|-------------|------------------------|
C|-----------------|---------------------|------------------------|-------------|------------------------|
C|-----------------|---------------------|------------------------|-------------|------------------------|


C|-36---36--36--38---38---|------------36---|-38----42---36---|-36---42---42---36---|
C|-46---46--46--46---46---|-----------------|-42---------42---|-42-------------42---|
C|------------------------|-42----42---42---|-----------------|---------------------|
C|------------------------|-36--------------|-----------------|---------------------|
C|------------------------|-----------------|-----------------|---------------------|
C|------------------------|-----------------|-----------------|---------------------|


C|-38---36--------36---|-36--------36---36--36--|-36----46---46---|-36---36---38-----------|
C|-42---42---42---42---|-46--------46---46--46--|-38--------------|-46---46---46-------50--|
C|---------------------|------------------------|-57--------------|------------------------|
C|---------------------|------------------------|-----------------|------------------------|
C|---------------------|------------------------|-----------------|------------------------|
C|---------------------|------------------------|-----------------|------------------------|


C|------48---47--47--38--38--|----------------36---|-38----42---36---|-36---42--------36---|
C|-50------------------------|-57--------42---42---|-42---------42---|-42--------42---42---|
C|---------------------------|-49------------------|-----------------|---------------------|
C|---------------------------|-36---42-------------|-----------------|---------------------|
C|---------------------------|---------------------|-----------------|---------------------|
C|---------------------------|---------------------|-----------------|---------------------|


C|-38---36--------36---|-36--------36---36--36--|-36----46----|-36---36--36--38--------|
C|-42---42---42---42---|-46--------46---46--46--|-38----------|-46---46--46--46--------|
C|---------------------|------------------------|-49----------|------------------------|
C|---------------------|------------------------|-------------|------------------------|
C|---------------------|------------------------|-------------|------------------------|
C|---------------------|------------------------|-------------|------------------------|


C|-36---36--36--38---38---|----------------36---|-38----42---36---|-36---42--------36---|
C|-46---46--46--46---46---|-57--------42---42---|-42---------42---|-42--------42---42---|
C|------------------------|---------------------|-----------------|---------------------|
C|------------------------|-36---42-------------|-----------------|---------------------|
C|------------------------|---------------------|-----------------|---------------------|
C|------------------------|---------------------|-----------------|---------------------|


C|-38---36--------36---|-36--------36---36--36--|-36----46----|-36---36--36--38--------|
C|-42---42---42---42---|-46--------46---46--46--|-38----------|-46---46--46--46---36---|
C|---------------------|------------------------|-49----------|------------------------|
C|---------------------|------------------------|-------------|------------------------|
C|---------------------|------------------------|-------------|------------------------|
C|---------------------|------------------------|-------------|------------------------|


C|-36----36---36---|----------------36---|-38----42---36---|-36---42--------36---|
C|-49----49--------|-57--------42---42---|-42---------42---|-42--------42---42---|
C|-----------------|---------------------|-----------------|---------------------|
C|-----------------|-36---42-------------|-----------------|---------------------|
C|-----------------|---------------------|-----------------|---------------------|
C|-----------------|---------------------|-----------------|---------------------|


C|-38------------------------|-36-------------36---|-36----46----|-36---36--36--38----------36--|
C|-42---42---46--46--46--46--|-46-------------46---|-38----------|-46---46--46--46--36--36--46--|
C|---------------------------|-----------42--------|-------------|------------------------------|
C|---------------------------|---------------------|-------------|------------------------------|
C|---------------------------|---------------------|-------------|------------------------------|
C|---------------------------|---------------------|-------------|------------------------------|


C|-38----------36--38--38-------|------------36---|-38--------------|-36---36--36--38--------|
C|-46--36--36--46--46--46--36---|-46---------42---|-46----42---42---|-46---46--46--36--------|
C|------------------------------|-----------------|-----------------|--------------57--------|
C|------------------------------|-36----42--------|-----------------|------------------------|
C|------------------------------|-----------------|-----------------|------------------------|
C|------------------------------|-----------------|-----------------|------------------------|


C|-36---36--36--38---49---|-36-------------36---|-38----------|-36---36---36---36---|
C|-46---46--46--36---36---|-57---42---42---46---|-46----46----|-38---38---38---38---|
C|------------------------|---------------------|-------------|---------------------|
C|------------------------|---------------------|-------------|---------------------|
C|------------------------|---------------------|-------------|---------------------|
C|------------------------|---------------------|-------------|---------------------|


C|-36---36---36---36---|-36---36--------36---|-38---38--38--36---36---|-36------------------|
C|-38---38---38---38---|-57---57-------------|--------------49---57---|-57-------------36---|
C|---------------------|---------------------|-------------------49---|-49------------------|
C|---------------------|---------------------|------------------------|---------------------|
C|---------------------|---------------------|------------------------|---------------------|
C|---------------------|---------------------|------------------------|---------------------|


C|-38---38--38--36---36---|-36-------------36---|-38----36----|-36----38---38-38-38-38-|
C|--------------49---57---|-57------------------|-------57----|-57---------------------|
C|-------------------49---|-49------------------|-------49----|-49---------------------|
C|------------------------|---------------------|-------------|------------------------|
C|------------------------|---------------------|-------------|------------------------|
C|------------------------|---------------------|-------------|------------------------|


C|-38---38---38--38--36---|-36-------------36---|-38---38--38--36---36---|-36-------------36---|
C|-------------------57---|-57------------------|--------------49---57---|-57------------------|
C|-------------------49---|-49------------------|-------------------49---|-49------------------|
C|------------------------|---------------------|------------------------|---------------------|
C|------------------------|---------------------|------------------------|---------------------|
C|------------------------|---------------------|------------------------|---------------------|


C|-38---38--38--36---36---|-36-------------36---|-38----36---36---|-36----------|---------------------------|
C|--------------49---57---|-57------------------|-------57---57---|-57----38----|-38--36-------38--36-------|
C|-------------------49---|-49------------------|-------49---49---|-49----------|---------------------------|
C|------------------------|---------------------|-----------------|-------------|---------------------------|
C|------------------------|---------------------|-----------------|-------------|---------------------------|
C|------------------------|---------------------|-----------------|-------------|---------------------------|


C|-36---36--------36---|-38---38--38--36---36---|-36------------------|-38---38--38--36---36---|
C|-57---57-------------|--------------49---57---|-57-------------36---|--------------49---57---|
C|---------------------|-------------------49---|-49------------------|-------------------49---|
C|---------------------|------------------------|---------------------|------------------------|
C|---------------------|------------------------|---------------------|------------------------|
C|---------------------|------------------------|---------------------|------------------------|


C|-36-------------36---|-38----36----|-36---------------------|-----------------------------38--|
C|-57------------------|-------57----|-57--------38-------38--|-38--38--45--45--45--45--38--36--|
C|-49------------------|-------49----|-49---------------------|---------------------------------|
C|---------------------|-------------|------------------------|---------------------------------|
C|---------------------|-------------|------------------------|---------------------------------|
C|---------------------|-------------|------------------------|---------------------------------|


C|-36------------------|-38---38--38--36---36---|-36---------------------------|---------------------------------|
C|-57-------------36---|--------------49---57---|-57---------------------------|---------------------------------|
C|-49------------------|-------------------49---|-49---50--50--50--50--50--50--|-50--45--45--45--41--41--41--41--|
C|---------------------|------------------------|------------------------------|---------------------------------|
C|---------------------|------------------------|------------------------------|---------------------------------|
C|---------------------|------------------------|------------------------------|---------------------------------|


C|-36-------------36---|-38----36---36---|-36----------|---------------------------|
C|-57------------------|-------57---57---|-57----38----|-38--36-------38--36-------|
C|-49------------------|-------49---49---|-49----------|---------------------------|
C|---------------------|-----------------|-------------|---------------------------|
C|---------------------|-----------------|-------------|---------------------------|
C|---------------------|-----------------|-------------|---------------------------|


C|------------36---|-38----42---36---|-36----42---36---|-38---36--------36---|-36--------36---36--36--|
C|-57--------------|-----------------|-----------------|------42--------42---|-46--------46---46--46--|
C|-49--------------|-----------------|-----------------|---------------------|-----------3------------|
C|-36--------------|-----------------|-----------------|---------------------|------------------------|
C|-----------------|-----------------|-----------------|---------------------|------------------------|
C|-----------------|-----------------|-----------------|---------------------|------------------------|


C|-36----46----|-36---36------38---36---|------36--------36---|------------36---|-38----46---36---|
C|-38----------|-46---46------46---46---|-46---46--------46---|-49---------46---|-46---------46---|
C|-49----------|------------------------|---------------------|-57--------------|-----------------|
C|-------------|------------------------|---------------------|-36----46--------|-----------------|
C|-------------|------------------------|---------------------|-----------------|-----------------|
C|-------------|------------------------|---------------------|-----------------|-----------------|


C|-36--------38--------|---------------------------------|-36---------36---|-36----46--------|
C|-46---46-------------|-47--47--45--45--41--41--38--38--|-46---------46---|-38--------------|
C|---------------------|---------------------------------|-------46--------|-57---------36---|
C|---------------------|---------------------------------|-----------------|-----------------|
C|---------------------|---------------------------------|-----------------|-----------------|
C|---------------------|---------------------------------|-----------------|-----------------|


C|-----------36---36---|-38------------------|----------------36---|-38----42---36---|
C|-38---38---38---38---|-36---36---57--------|-----------42---42---|-42---------42---|
C|---------------------|-45---38---36--------|-46------------------|-----------------|
C|---------------------|------41---49--------|-36---42-------------|-----------------|
C|---------------------|---------------------|---------------------|-----------------|
C|---------------------|---------------------|---------------------|-----------------|


C|-36---42--------36---|-38---36--------36---|-36--------36---36--36--|-36----46----|
C|-42--------42---42---|-42---42---42---42---|-46--------46---46--46--|-38----------|
C|---------------------|---------------------|------------------------|-49----------|
C|---------------------|---------------------|------------------------|-------------|
C|---------------------|---------------------|------------------------|-------------|
C|---------------------|---------------------|------------------------|-------------|


C|-36---36--36--38--------|-36---36--36--38---38---|----------------36---|-38----42---36---|
C|-46---46--46--46--------|-46---46--46--46---46---|-57--------42---42---|-42---------42---|
C|------------------------|------------------------|---------------------|-----------------|
C|------------------------|------------------------|-36---42-------------|-----------------|
C|------------------------|------------------------|---------------------|-----------------|
C|------------------------|------------------------|---------------------|-----------------|


C|-36---42--------36---|-38---36--------36---|-36--------36---36--36--|-36----46----|
C|-42--------42---42---|-42---42---42---42---|-46--------46---46--46--|-38----------|
C|---------------------|---------------------|------------------------|-49----------|
C|---------------------|---------------------|------------------------|-------------|
C|---------------------|---------------------|------------------------|-------------|
C|---------------------|---------------------|------------------------|-------------|


C|-36---36--36--38--------|-36-----------36------36---|----------------36---|-38----42---36---|
C|-46---46--46--46---36---|-49-----------57-----------|-57--------42---42---|-42---------42---|
C|------------------------|---------------------------|---------------------|-----------------|
C|------------------------|---------------------------|-36---42-------------|-----------------|
C|------------------------|---------------------------|---------------------|-----------------|
C|------------------------|---------------------------|---------------------|-----------------|


C|-36---42--------36---|-38---------------------------|-36-------------36---|-36----46----|
C|-42--------42---42---|-42---------------------------|-46-------------46---|-38----------|
C|---------------------|------47--47--47--47--47--47--|-----------42--------|-------------|
C|---------------------|------------------------------|---------------------|-------------|
C|---------------------|------------------------------|---------------------|-------------|
C|---------------------|------------------------------|---------------------|-------------|


C|-36---36--36--38----------36--|-38----------36--38--38-------|------------36---|
C|-46---46--46--57--36--36--46--|-49--36--36--46--57--57--36---|-46---------42---|
C|------------------------------|-------------------------46---|-----------------|
C|------------------------------|------------------------------|-36----42--------|
C|------------------------------|------------------------------|-----------------|
C|------------------------------|------------------------------|-----------------|


C|-38--------------|-36---36--36--38--------|-36---36--36--38---49---|-36-------------36---|
C|-46----42---42---|-46---46--46--36--------|-46---46--46--36---36---|-57---42---42---46---|
C|-----------------|--------------57--------|------------------------|-49------------------|
C|-----------------|------------------------|------------------------|---------------------|
C|-----------------|------------------------|------------------------|---------------------|
C|-----------------|------------------------|------------------------|---------------------|


C|-38----------|-36---36---36---36---|-36---36---36---36---|-36---36--------36---|
C|-------46----|-38---38---38---38---|-38---38---38---38---|-57---57-------------|
C|-57----------|---------------------|---------------------|---------------------|
C|-------------|---------------------|---------------------|---------------------|
C|-------------|---------------------|---------------------|---------------------|
C|-------------|---------------------|---------------------|---------------------|


C|-38---38--38--36---36---|-36------------------|-38---38--38--36---36---|-36-------------36---|
C|--------------49---57---|-57-------------36---|--------------49---57---|-57------------------|
C|-------------------49---|-49------------------|-------------------49---|-49------------------|
C|------------------------|---------------------|------------------------|---------------------|
C|------------------------|---------------------|------------------------|---------------------|
C|------------------------|---------------------|------------------------|---------------------|


C|-38----36----|-36----38---38-38-38-38-|-38---38---38--38--36---|-36-------------36---|
C|-------57----|-57---------------------|-------------------57---|-57------------------|
C|-------49----|-49---------------------|-------------------49---|-49------------------|
C|-------------|------------------------|------------------------|---------------------|
C|-------------|------------------------|------------------------|---------------------|
C|-------------|------------------------|------------------------|---------------------|


C|-38---38--38--36---36---|-36-------------36---|-38---38--38--36---36---|-36-------------36---|
C|--------------49---57---|-57------------------|--------------49---57---|-57------------------|
C|-------------------49---|-49------------------|-------------------49---|-49------------------|
C|------------------------|---------------------|------------------------|---------------------|
C|------------------------|---------------------|------------------------|---------------------|
C|------------------------|---------------------|------------------------|---------------------|


C|-38----36---36---|-36----------|---------------------------|-36---36--------36---|
C|-------57---57---|-57----38----|-38--36-------38--36-------|-57---57-------------|
C|-------49---49---|-49----------|---------------------------|---------------------|
C|-----------------|-------------|---------------------------|---------------------|
C|-----------------|-------------|---------------------------|---------------------|
C|-----------------|-------------|---------------------------|---------------------|


C|-38---38--38--36---36---|-36------------------|-38---38--38--36---36---|-36-------------36---|
C|--------------49---57---|-57-------------36---|--------------49---57---|-57------------------|
C|-------------------49---|-49------------------|-------------------49---|-49------------------|
C|------------------------|---------------------|------------------------|---------------------|
C|------------------------|---------------------|------------------------|---------------------|
C|------------------------|---------------------|------------------------|---------------------|


C|-38----36----|-36---------------------|-----------------------------38--|-36------------------|
C|-------57----|-57--------38-------38--|-38--38--45--45--45--45--38--36--|-57-------------36---|
C|-------49----|-49---------------------|---------------------------------|-49------------------|
C|-------------|------------------------|---------------------------------|---------------------|
C|-------------|------------------------|---------------------------------|---------------------|
C|-------------|------------------------|---------------------------------|---------------------|


C|-38---38--38--36---36---|-36---------------------------|---------------------------------|
C|--------------49---57---|-57---------------------------|---------------------------------|
C|-------------------49---|-49---50--50--50--50--50--50--|-38--50--50--50--41--41--38--36--|
C|------------------------|------------------------------|-----------------------------49--|
C|------------------------|------------------------------|---------------------------------|
C|------------------------|------------------------------|---------------------------------|


C|-36-------------36---|-38----36---36---|-36-----|--------|--------|--------|-36-----|
C|-57------------------|-------57---57---|-57-----|--------|--------|--------|-57-----|
C|-49------------------|-------49---49---|-49-----|--------|--------|--------|-49-----|
C|---------------------|-----------------|--------|--------|--------|--------|--------|
C|---------------------|-----------------|--------|--------|--------|--------|--------|
C|---------------------|-----------------|--------|--------|--------|--------|--------|


C|--------|-----------------------------|---------------------------------------|---------------------|
C|--------|-----------------------------|---------------------------------------|-49--------46--------|
C|--------|-----------------------38-38-|-36--38-38-36--38-38-36--38-38-36--36--|-36--------38--------|
C|--------|-----------------------------|-57--------57--------57--------57--49--|-57---46--------46---|
C|--------|-----------------------------|---------------------------------------|---------------------|
C|--------|-----------------------------|---------------------------------------|---------------------|


C|------------------------|------------------------|------------------------------|
C|------------------------|------------------------|------------------------------|
C|-36--------38--36-------|-36---36---38--57-------|-36---38--36------36--36------|
C|-46---46---46--57--46---|-46---46-------36--46---|-46---46--49------49--49------|
C|------------------------|------------------------|------------------------------|
C|------------------------|------------------------|------------------------------|


C|---------------------|---------------------------|---------------------------------|
C|-49--------46--------|---------------------------|---------------------------------|
C|-36---36---38--------|-36--------38--36------46--|-46--36--38--36--38--36--38--36--|
C|-57---46--------46---|-46---46---46--57------36--|-36--57--49--57--49--57--49--57--|
C|---------------------|---------------------------|---------------------------------|
C|---------------------|---------------------------|---------------------------------|


C|---------------------------------|---------------------|------------------------|
C|---------------------------------|-49--------46--------|------------------------|
C|-38--36--38--36--38--36--38--36--|-36---36---38--------|-36--------38--36-------|
C|-49--57--49--57--49--57--49--57--|-57---46--------46---|-46---46---46--57--46---|
C|---------------------------------|---------------------|------------------------|
C|---------------------------------|---------------------|------------------------|


C|------------------------|--------------------------------------|------------------------|
C|------------------------|--------------------------------------|-49--------46-----------|
C|-36---36---38--57-------|-36---38------------------------------|-36---36---38--36--46---|
C|-46---46-------36--46---|-46---46---47-47-47-45--45--45--36----|-57---46-------46-------|
C|------------------------|--------------------------------------|------------------------|
C|------------------------|--------------------------------------|------------------------|


C|--------------------------------|------------------------|--------------------------------|
C|--------------------------------|------------------------|--------------------------------|
C|-36---46------------------------|-49--------46--46-------|-36---46------------------------|
C|-46---38---47--47--38--36-36-36-|-57---46---38--36--46---|-46---38---47--47--38--36-36-36-|
C|-------------------59--57-57-57-|-36---------------------|-------------------59--57-57-57-|
C|--------------------------------|------------------------|--------------------------------|


C|---------------------|---------------------------|---------------------------------|
C|-49--------46--------|---------------------------|---------------------------------|
C|-36---36---38--------|-36--------38--36------46--|-46--36--38--36--38--36--38--38--|
C|-57---46--------46---|-46---46---46--57------36--|-36--57--49--57--49--57--49--49--|
C|---------------------|---------------------------|---------------------------------|
C|---------------------|---------------------------|---------------------------------|


C|---------------------------------|------------------------|------------------------|
C|---------------------------------|-49--------46-----------|------------------------|
C|-38--47--47--47--47--45--41--36--|-36---36---38--36--46---|-36--------38--36-------|
C|-----------------------------49--|-57---46-------46-------|-46---46---46--57--46---|
C|---------------------------------|------------------------|------------------------|
C|---------------------------------|------------------------|------------------------|


C|------------------------|---------------------------|---------------------------------|
C|------------------------|---------------------------|-36------------------------------|
C|-36---36---38--57-------|-36---46-------------------|-49--42--38--42--36--42--38--42--|
C|-46---46-------36--46---|-46---38---47--47--38--38--|-57------42------42------42------|
C|------------------------|-------------------59--57--|---------------------------------|
C|------------------------|---------------------------|---------------------------------|


C|---------------------------------|---------------------------------|---------------------------------|
C|---------------------------------|---------------------------------|---------------------------------|
C|-36--42--38--42--36--42--38--42--|-36--42--38--42--36--42--38--42--|-36--42--38--42--36--42--38--42--|
C|-42------42------42------42------|-42------42------42------42------|-42------42------42------42------|
C|---------------------------------|---------------------------------|---------------------------------|
C|---------------------------------|---------------------------------|---------------------------------|


C|---------------------------------|---------------------------------|---------------------|
C|---------------------------------|---------------------------------|-36------------------|
C|-36--42--38--42--36--42--38--42--|-36--42--38--42--36--38--38------|-49---42---38---42---|
C|-42------42------42------42------|-42------42------42--42--42------|-57--------42--------|
C|---------------------------------|---------------------------------|---------------------|
C|---------------------------------|---------------------------------|---------------------|


C|---------------------------------|---------------------------------|---------------------------------|
C|---------------------------------|-36------------------------------|---------------------------------|
C|---------------------------------|-49--42--38--42--36--42--38--42--|-36--42--38--42--36--42--38--42--|
C|-38--38--36--36--38--38--36--38--|-57------42------42------42------|-42------42------42------42------|
C|---------------------------------|---------------------------------|---------------------------------|
C|---------------------------------|---------------------------------|---------------------------------|


C|---------------------------------|---------------------------------|---------------------------------|
C|---------------------------------|---------------------------------|---------------------------------|
C|-36--42--38--42--36--42--38--42--|-36--42--38--42--36--42--38--42--|-36--42--38--42--36--42--38--42--|
C|-42------42------42------42------|-42------42------42------42------|-42------42------42------42------|
C|---------------------------------|---------------------------------|---------------------------------|
C|---------------------------------|---------------------------------|---------------------------------|


C|---------------------------------|---------------------------------|---------------------------------|
C|---------------------------------|---------------------------------|---------------------------------|
C|-36--42--38--42--36--42--38--42--|-36--42--38--42--36--42--38--42--|-36--42--38--42--36--42--38--38--|
C|-42------42------42------42------|-42------42------42------42------|-24------42------42------42--42--|
C|---------------------------------|---------------------------------|---------------------------------|
C|---------------------------------|---------------------------------|---------------------------------|


C|---------------------------------|---------------------------------|---------------------------------|
C|---------------------------------|---------------------------------|---------------------------------|
C|-36--42--38--42--36--42--38--42--|-36--42--38--42--36--42--38--42--|-36--42--38--42--36--42--38--42--|
C|-49------42------42------42------|-42------42------42------42------|-42------42------42------42------|
C|-57------------------------------|---------------------------------|---------------------------------|
C|---------------------------------|---------------------------------|---------------------------------|


C|---------------------------------|---------------------------------|---------------------------------|
C|---------------------------------|-49------------------------------|---------------------------------|
C|-36--42--38--42--36--42--38--42--|-36--42--38--42--36--42--38--42--|-36--42--38--42--36--42--38--42--|
C|-42------42------42------42------|-57------42------42------42------|-42------42------42------42------|
C|---------------------------------|---------------------------------|---------------------------------|
C|---------------------------------|---------------------------------|---------------------------------|


C|---------------------------------|---------------------------------|-49-35-36-35-38-35-36-35-42-35-36-35-38-35-36-35-|
C|---------------------------------|---------------------------------|-36----------42----------36----------42----------|
C|-36--42--38--42--36--42--38--42--|-36--42--38--42--36--38--38--38--|-57----------36----------------------36----------|
C|-49------42------42------42------|-42------42------42--42--42--42--|-------------------------------------------------|
C|-57------------------------------|---------------------------------|-------------------------------------------------|
C|---------------------------------|---------------------------------|-------------------------------------------------|


C|----35-36-35-38-35-36-35-42-35-36-35-38-35-36-35-|-49-35-36-35-38-35-36-35-42-35-36-35-38-35-36-35-|
C|-36----------42----------36----------42----------|-36----------42----------36----------42----------|
C|-------------36----------------------36----------|-57----------36----------------------36----------|
C|-------------------------------------------------|-------------------------------------------------|
C|-------------------------------------------------|-------------------------------------------------|
C|-------------------------------------------------|-------------------------------------------------|


C|----35-36-35-38-35-36-35-42-35-36-35-38-35-36-35-|-49-35-36-35-38-35-36-35-42-35-36-35-38-35-36-35-|
C|-36----------42----------36----------42----------|-36----------42----------36----------42----------|
C|-------------36----------------------36----------|-57----------36----------------------36----------|
C|-------------------------------------------------|-------------------------------------------------|
C|-------------------------------------------------|-------------------------------------------------|
C|-------------------------------------------------|-------------------------------------------------|


C|----35-36-35-38-35-36-35-42-35-36-35-38-35-36-35-|-49-35-36-35-38-35-36-35-38-35-36-35-38-35-36-35-|
C|-36----------42----------36----------42----------|-36----------57----------49----------57----------|
C|-------------36----------------------36----------|-------------36----------------------36----------|
C|-------------------------------------------------|-------------------------------------------------|
C|-------------------------------------------------|-------------------------------------------------|
C|-------------------------------------------------|-------------------------------------------------|


C|---------------------------------|-49-35-36-35-38-35-36-35-42-35-36-35-38-35-36-35-|
C|---------------------------------|-36----------42----------36----------42----------|
C|-36--38--38--38--36--38--38--38--|-57----------36----------------------36----------|
C|---------------------------------|-------------------------------------------------|
C|---------------------------------|-------------------------------------------------|
C|---------------------------------|-------------------------------------------------|


C|----35-36-35-38-35-36-35-42-35-36-35-38-35-36-35-|-57-35-36-35-38-35-36-35-42-35-36-35-38-35-36-35-|
C|-36----------42----------36----------42----------|-36----------42----------36----------42----------|
C|-------------36----------------------36----------|-49----------36----------------------36----------|
C|-------------------------------------------------|-------------------------------------------------|
C|-------------------------------------------------|-------------------------------------------------|
C|-------------------------------------------------|-------------------------------------------------|


C|----35-36-35-38-35-36-35-42-35-36-35-38-35-36-35-|-57-35-36-35-38-35-36-35-42-35-36-35-38-35-36-35-|
C|-36----------42----------36----------42----------|-36----------42----------36----------42----------|
C|-------------36----------------------36----------|-------------36----------------------36----------|
C|-------------------------------------------------|-------------------------------------------------|
C|-------------------------------------------------|-------------------------------------------------|
C|-------------------------------------------------|-------------------------------------------------|


C|----35-36-35-38-35-36-35-42-35-36-35-38-35-36-35-|-57-35-36-35-38-35-36-35-42-35-36-35-38-35-36-35-|
C|-36----------42----------36----------42----------|-36----------42----------36----------42----------|
C|-------------36----------------------36----------|-49----------36----------57----------36----------|
C|-------------------------------------------------|-------------57----------------------57----------|
C|-------------------------------------------------|-------------------------------------------------|
C|-------------------------------------------------|-------------------------------------------------|


C|-57-35-36-35-38-35-36-35-42-35-36-35-38-35-36-35-|-46-35-36-35-38-35-36-35-46-35-36-35-38-35-36-35-|
C|-36----------42----------36----------42----------|-38----------46----------38----------46----------|
C|-------------36----------57----------36----------|-------------36----------------------36----------|
C|-------------57----------------------57----------|-------------------------------------------------|
C|-------------------------------------------------|-------------------------------------------------|
C|-------------------------------------------------|-------------------------------------------------|


C|-46-35-36-35-38-35-36-35-46-35-36-35-38-35-36-35-|-46-35-36-35-38-35-36-35-46-35-36-35-38-35-36-35-|
C|-38----------46----------38----------46----------|-38----------46----------38----------46----------|
C|-------------36----------------------36----------|-------------36----------------------36----------|
C|-------------------------------------------------|-------------------------------------------------|
C|-------------------------------------------------|-------------------------------------------------|
C|-------------------------------------------------|-------------------------------------------------|


C|-46-35-36-35-38-35-36-35-46-35-36-35-38-35-36-35-|-46-35-36-35-38-35-36-35-46-35-36-35-38-35-36-35-|
C|-38----------46----------38----------46----------|-38----------46----------38----------46----------|
C|-------------36----------------------36----------|-------------36----------------------36----------|
C|-------------------------------------------------|-------------------------------------------------|
C|-------------------------------------------------|-------------------------------------------------|
C|-------------------------------------------------|-------------------------------------------------|


C|-46-35-36-35-38-35-36-35-46-35-36-35-38-35-36-35-|-36--38--38--38--38------36--38--|
C|-38----------46----------38----------46----------|-57--49--49--57--49------57--49--|
C|-------------36----------------------36----------|---------------------------------|
C|-------------------------------------------------|---------------------------------|
C|-------------------------------------------------|---------------------------------|
C|-------------------------------------------------|---------------------------------|


C|-----36--38------36-36-36-36-41--41--|----35-36-35-38-35-36-35-46-35-36-35-38-35-36-35-|
C|-----57--49------47-47-43-43-38--38--|-38----------46----------38----------46----------|
C|-------------------------------------|-57----------36----------------------36----------|
C|-------------------------------------|-49----------------------------------------------|
C|-------------------------------------|-------------------------------------------------|
C|-------------------------------------|-------------------------------------------------|


C|-----35--36--38--36--35------35--|----35-36-35-38-35-36-35-46-35-36-35-38-35-36-35-|
C|-38----------49--46--46--38------|-38----------46----------38----------46----------|
C|-57----------------------57------|-57----------36----------------------36----------|
C|-49------------------------------|-49----------------------------------------------|
C|---------------------------------|-------------------------------------------------|
C|---------------------------------|-------------------------------------------------|


C|-46-47-47-47-43-43-43-43-41-41-41-36-38--36--|----35-36-35-38-35-36-35-46-35-36-35-38-35-36-35-|
C|-38------------------------------------------|-38----------46----------38----------46----------|
C|---------------------------------------------|-57----------36----------------------36----------|
C|---------------------------------------------|-49----------------------------------------------|
C|---------------------------------------------|-------------------------------------------------|
C|---------------------------------------------|-------------------------------------------------|


C|-46-47-47-47-43-43-38-47-47-45-45-41-38--36--|----35-36-35-38-35-36-35-46-35-36-35-38-35-36-35-|
C|-38----------------57----------------46------|-38----------46----------38----------46----------|
C|---------------------------------------------|-57----------36----------------------36----------|
C|---------------------------------------------|-49----------------------------------------------|
C|---------------------------------------------|-------------------------------------------------|
C|---------------------------------------------|-------------------------------------------------|


C|-46-35-36-35-38-35-36-35-46-35-36-35-38-35-36-35-|-36------------------|---------------------|
C|-38----------46----------38----------46----------|-57---46---46---46---|-46---46---46---46---|
C|-------------36----------------------36----------|-49------------------|---------------------|
C|-------------------------------------------------|---------------------|---------------------|
C|-------------------------------------------------|---------------------|---------------------|
C|-------------------------------------------------|---------------------|---------------------|


C|-36------------------|-----------------------------------------|-36------------------|
C|-57---46---46---46---|-46--46--46--46--46-46-46-46-46-46-46-46-|-57---46---46---46---|
C|-49------------------|-----------------------------------------|-49------------------|
C|---------------------|-----------------------------------------|---------------------|
C|---------------------|-----------------------------------------|---------------------|
C|---------------------|-----------------------------------------|---------------------|


C|---------------------|-36------------------|---------------------|-57--------------------|
C|-46---46---46---46---|-57---46---46---46---|-49---49---49---49---|-36----3636-------36---|
C|---------------------|-49------------------|---------------------|-49----5757-------57---|
C|---------------------|---------------------|---------------------|-------4646-------46---|
C|---------------------|---------------------|---------------------|-----------------------|
C|---------------------|---------------------|---------------------|-----------------------|


C|-------------|--------------------------|-38---38---49----|-49-36-36-36-36-36-36-36-36-36-36-36-36-36-36-36-36-36-36-36-36-36-36-36-|
C|-------------|--------------------------|-38---38---43----|-57-49-49-49-49-49-49-49-49-49-49-49-49-49-49-49-49-49-49-49-49-49-49-49-|
C|-------36----|--------------------------|-38---38---36----|-46----------------------------------------------------------------------|
C|-------57----|------38---46---46---46---|------36---------|-36----------------------------------------------------------------------|
C|-------46----|------38---47---45---43---|-----------------|-------------------------------------------------------------------------|
C|-------------|------38---36---36---36---|-----------------|-------------------------------------------------------------------------|


C|-36-36-36-36-36-36-36-36-36-36-36-36-36-36-36-36-36-36-36-36-36-36-36-36-|-36-36-36-36-36-36-36-36-36-36-36-36-36-36-36-36-36-36-36-36-36-36-36-36-|
C|-------49-------49-------49-------49-------49-------49-------49-------49-|-------49-------57-------49-------57-------49-------57-------49-------57-|
C|-------------------------------------------------------------------------|-------------------------------------------------------------------------|
C|-------------------------------------------------------------------------|-------------------------------------------------------------------------|
C|-------------------------------------------------------------------------|-------------------------------------------------------------------------|
C|-------------------------------------------------------------------------|-------------------------------------------------------------------------|


C|-36-36-36-36-36-36-36-36-36-36-36-36-36-36-36-36-36-36-36-36-36-36-36-36-|-36-36-36-36-36-36-36-36-36-36-36-36-36-36-36-36-36-36-36-36-36-36-36-36-|
C|-------49-------49-------49-------49-------49-------49-------49-------49-|-------49-------49-------49-------49-------49-------49-------49-------49-|
C|-------------------------------------------------------------------------|-------------------------------------------------------------------------|
C|-------------------------------------------------------------------------|-------------------------------------------------------------------------|
C|-------------------------------------------------------------------------|-------------------------------------------------------------------------|
C|-------------------------------------------------------------------------|-------------------------------------------------------------------------|


C|-36-36-36-36-36-36-36-36-36-36-36-36-36-36-36-36-36-36-36-36-36-36-36-36-|-36-36-36-36-36-36-36-36-36-36-36-36-36-36-36-36-36-36-36-36-36-36-36-36-|
C|-------49----------------49----------------49----------------49----------|-------49-------49-------49-------49-------49-------49-------49-------49-|
C|-------------------------------------------------------------------------|-------------------------------------------------------------------------|
C|-------------------------------------------------------------------------|-------------------------------------------------------------------------|
C|-------------------------------------------------------------------------|-------------------------------------------------------------------------|
C|-------------------------------------------------------------------------|-------------------------------------------------------------------------|


C|-36-36-36-36-36-36-36-36-36-36-36-36-36-36-36-36-36-36-36-36-36-36-36-36-|-36-36-36-36-36-36-36-36-36-36-36-36-36-36-36-36-36-36-36-36-36-36-36-36-|
C|-------49-------49-------49-------49-------49-------49-------49-------49-|-------49----------------57----------------49----------------57----------|
C|-------------------------------------------------------------------------|-------------------------------------------------------------------------|
C|-------------------------------------------------------------------------|-------------------------------------------------------------------------|
C|-------------------------------------------------------------------------|-------------------------------------------------------------------------|
C|-------------------------------------------------------------------------|-------------------------------------------------------------------------|


C|-36-36-36-36-36-36-36-36-36-36-36-36-36-36-36-36-36-36-36-36-36-36-36-36-|-36-36-36-36-36-36-36-36-36-36-36-36-36-36-36-36-36-36-36-36-36-36-36-36-|
C|-------49----------------57----------------49----------------57----------|-------49----------------57----------------49----------------57----------|
C|-------------------------------------------------------------------------|-------------------------------------------------------------------------|
C|-------------------------------------------------------------------------|-------------------------------------------------------------------------|
C|-------------------------------------------------------------------------|-------------------------------------------------------------------------|
C|-------------------------------------------------------------------------|-------------------------------------------------------------------------|


C|-36-36-36-36-36-36-36-36-36-36-36-36-36-36-36-36-36-36-36-36-36-36-36-36-|-36-36-36-36-36-36-36-36-36-36-36-36-36-36-36-36-36-36-36-36-36-36-36-36-|
C|-------38----------------38----------------38----------------38----------|-------38----------------38----------------38----------------38----------|
C|-------------------------------------------------------------------------|-------------------------------------------------------------------------|
C|-------------------------------------------------------------------------|-------------------------------------------------------------------------|
C|-------------------------------------------------------------------------|-------------------------------------------------------------------------|
C|-------------------------------------------------------------------------|-------------------------------------------------------------------------|


C|-36-36-36-36-36-36-36-36-36-36-36-36-36-36-36-36-36-36-36-36-36-36-36-36-|-36-36-36-36-36-36-36-36-36-36-36-36-36-36-36-36-36-36-36-36-36-36-36-36-|
C|-------38----------------45----------------38----------------45----------|-------49----------------57----------------49----------------57----------|
C|-------------------------------------------------------------------------|-------------------------------------------------------------------------|
C|-------------------------------------------------------------------------|-------------------------------------------------------------------------|
C|-------------------------------------------------------------------------|-------------------------------------------------------------------------|
C|-------------------------------------------------------------------------|-------------------------------------------------------------------------|


C|-36-36-36-36-36-36-36-36-36-36-36-36-36-36-36-36-36-36-36-36-36-36-36-36-|-36-36-36-36-36-36-36-36-36-36-36-36-36-36-36-36-36-36-36-36-36-36-36-36-|
C|-------49----------------49----------------49----------------49----------|-------49-------49-------49-------49-------49-------49-------49-------49-|
C|-------------------------------------------------------------------------|-------------------------------------------------------------------------|
C|-------------------------------------------------------------------------|-------------------------------------------------------------------------|
C|-------------------------------------------------------------------------|-------------------------------------------------------------------------|
C|-------------------------------------------------------------------------|-------------------------------------------------------------------------|


C|-36-36-36-36-36-36-36-36-36-36-36-36-36-36-36-36-36-36-36-36-36-36-36-36-|-36-36-36-36-36-36-36-36-36-36-36-36-36-36-36-36-36-36-36-36-36-36-36-36-|
C|-------49-------49-------49-------49-------49-------49-------49-------49-|-------49----------------57----------------49----------------57----------|
C|-------------------------------------------------------------------------|-------------------------------------------------------------------------|
C|-------------------------------------------------------------------------|-------------------------------------------------------------------------|
C|-------------------------------------------------------------------------|-------------------------------------------------------------------------|
C|-------------------------------------------------------------------------|-------------------------------------------------------------------------|


C|-36-36-36-36-36-36-36-36-36-36-36-36-36-36-36-36-36-36-36-36-36-36-36-36-|-36-36-36-36-36-36-36-36-36-36-36-36-36-36-36-36-36-36-36-36-36-36-36-36-|
C|-------49----------------57----------------49----------------57----------|-------38-------38-------38-47-45-43-41-35-38-47-45-43-41-35-38-38-38-49-|
C|-------------------------------------------------------------------------|----------------------------------------------------------------------57-|
C|-------------------------------------------------------------------------|-------------------------------------------------------------------------|
C|-------------------------------------------------------------------------|-------------------------------------------------------------------------|
C|-------------------------------------------------------------------------|-------------------------------------------------------------------------|


C|-49---49---57---57---|-49---49---57---57---|-57-36-36-36-36-36-36-36-36-36-36-36-36-36-36-36-36-36-36-36-36-36-36-36-|
C|-46---46---46---46---|-46---46---46---46---|-46-57-57-57-57-57-57-57-57-57-57-57-57-57-57-57-57-57-57-57-57-57-57-57-|
C|-41---41---43---43---|-45---45---47---47---|-49----------------------------------------------------------------------|
C|---------------------|---------------------|-44----------------------------------------------------------------------|
C|---------------------|---------------------|-36----------------------------------------------------------------------|
C|---------------------|---------------------|-------------------------------------------------------------------------|


C|--------------------|--------------------|--------------------|------------------------|
C|--------------------|--------------------|--------------------|------------------------|
C|--------------------|--------------------|--------------------|------------------------|
C|-57----46---36--36--|-57----46---36--36--|-57----46---36--36--|-57---36--36--36---57---|
C|-49----36---38--38--|-49----36---38--38--|-49----36---38--38--|-49---38--38--38---46---|
C|-36----36-----------|-36----36-----------|-36----36-----------|-36----------------36---|


C|--------|---------------------|
C|--------|---------------------|
C|-49-----|---------------------|
C|-46-----|---------------------|
C|-36-----|-49---49---49--------|
C|-44-----|-38---38---38--------|



← Back to top